Song name
# A B C D E F G H I J K L M N O P Q R S T U V W X Y Z

Die Aerzte - Hurra tab

Song: Hurra (only the intro)
Artist: die arzte
Tabbed by: shadowdream

(qb) = quater bend (1/4 bend)
 /   = slide up
P.M. = Palm mute

This is only the intro from the lead guitar:


e |-----------------------------------|
b |-----------3-3---------------3-3---|
g |--2-2------2-2------2-2------2-2---|
d |--2-2------0-0------2-2------0-0---|
a |--0-0---------------0-0------------|
E |-----------------------------------|


e |---------------------------------------------------------|
b |-------------------------3-3-------------------------3-3-|
g |-----------2-2-----------2-2-----------2-2-----------2-2-|
d |-----------2-2-----------0-0-----------2-2-----------0-0-|
a |--0--------0-0---0-------------0-------0-0---0-----------|
E |----3(qb)----------3(qb)---------3(qb)---------3(qb)-----|

Than:

e |---------------------------------------------------------|
b |---------------------------------------------------------|
g |-2-2--7--7/6--6/4--4/2-----2-2----4--6--4--2------2-2----|
d |-2-2--------------------4--2-2----------------4---0-0----|
a |-0-0-----------------------0-0---------------------------|
E |---------------------------------------------------------|

e |----------------------|
b |----------------------|
g |-7--7/6--6/4--4/2-----|
d |-------------------4--|
a |----------------------|
E |----------------------|

This do 2 times.

Than the outro from the intro:

e |-------------3-3-------------3-3--------------3-3----|
b |-------------3-3-------------3-3--------------3-3----|
g |--2-2---2-2-------2-2---2-2-------2-2---2-2----------|
d |--0-0---0-0-------0-0---0-0-------0-0---0-0----------|
a |-----------------------------------------------------|
E |-----------------------------------------------------|
P.M.XXXXXXXXXXXXXXXXXXXXXXXXXXXXXXXXXXXXXXXXXXXXXXXXXXXX

e |-------------3-3-------------2-2-------|
b |-------------3-3-------------3-3-------|
g |--2-2---2-2-------2-2---2-2------------|
d |--0-0---0-0-------0-0---0-0------------|
a |---------------------------------------|
E |---------------------------------------|
P.M.XXXXXXXXXXXXXXXXXXXXXXXXXXXXXXXXXXXXXX                                       


i didnt know if this is palm mutet.
but it sounds so.


I think thats it.
It sounds good.
Listen to the speed.
So please rate and write comments.
Tap to rate this tab
 
# A B C D E F G H I J K L M N O P Q R S T U V W X Y Z