Song name
# A B C D E F G H I J K L M N O P Q R S T U V W X Y Z

Die Apokalyptischen Reiter - Gone tab

Help us improve GuitareTab! Take a short survey!
----------------------------Die Apokalyptischen Reiter-Gone------------------

Standard-C
(Tune Down 2 Steps from E)

|-----------------------------------------------------|
|-----------------------------------------------------|
|-----------------------------------------------------|
|----9--9----------------------------------------7-9-7|
|----7--7---9----9--10--10-5---5-7--7-4----4--9-9-----|
|-----------7----7--8---8--3---3-5--5-2----2--7-7-----|


|-----------------------------------------------------------------|
|-----------------------------------------------------------------|
|-----------------------------------------------------------------|
|----99999999------------------------------------------------7-9-7|
|----77777777-9999999-10101010-5555555-777777-444444-9999999------|
|-------------7777777-88888888-3333333-555555-222222-777777-------|

You will have to repeat the notes here fast. i couldnt coherently tab them here together 
this is my first tab. Sorry, i hope you get the way its meant to be played.
(bei diesem Teil müsst ihr die angegebenen Noten schnell wiederholen)
|--------------------------------------------------------------------------|
|--------------------------7-----------------------------------------------|
|-----------5---------7-------7-5-4----------------------------------------|
|---5-7--5------5-4--------------------------------------------------------|
|--------------------------------------------------------------------------|
|--------------------------------------------------------------------------|

|---------------------------------------------------------------------------|
|------------------------------7--------------------------------------------|
|---------4-----------4-------7-7-5-4---------------------------------------|
|---5-4-5-------5-4-5------4------------------------------------------------|
|---------------------------------------------------------------------------|
|---------------------------------------------------------------------------|

|-------------------------------------|
|-------------------------------------|
|-------------------------------------|
|---2-2---3-5-7--------2-2--3-5-7----3|
|---2-2---3-5-7--------2-2--3-5-7----3|
|---0-0---1-3-5--------0-0--1-3-5----1|


Volk-Man/Pitrone Solo. Don't repeat notes here. It's played just how it is written.

|-------------------------------------------------|
|-------------------------------------------------|
|--------2---2-5-4-2------------------------------|
|----3-5--------------3----3-5-3-2--2------2-3----|
|--------------------------------------3-3--------|
|-------------------------------------------------|

|-------------------------------------------------|
|-------------------------------------------------|
|--------2---2-5-4-2------------------------------|
|----3-5--------------3----3-5-3-2--2------2-3----|
|--------------------------------------3-3--------|
|-------------------------------------------------|


|----------------13-12--------------------17-15-13-12-13-15----------|
|----------3-1---------13-----------------------------------13-------|
|--------2---------------12-10---------------------------------------|
|----3-5-------------------------------------------------------------|
|--------------------------------3-5-0-------------------------------|
|--------------------------------------------------------------------|


|---17-15-13-12-13-15-13-12-------------------------13-12-----|
|---------------------------13----------12-13-12-13-----------|
|-------------------------------------12----------------------|
|-------------------------------10-h12------------------------|
|-------------------------------------------------------------|
|-------------------------------------------------------------|

|---13-12-------------------------------|
|---------13-12-------------------------|
|------------------12-10----------------|
|-------------------------10------------|
|---------------------------------------|
|---------------------------------------|

I am not even sure about the ending of the solo, but i will definately update it if i 
it right and add a comment.

|-----------------------------------------------|
|-----------------------------------------------|
|-----------------------------------------------|
|-----------------------------------------------|
|----3-3-3-3-3-3-3-3-3-3-7-7-7-7-7-7-7-7-7-7-7-7|
|----1-1-1-1-1-1-1-1-1-1-5-5-5-5-5-5-5-5-5-5-5-5|

And after this part, it cycles again to the verse riff which is repeated intro and so 
it should not be to hard to hear it, you can't get it wrong, i hope you can cope with the tab.
Related for Gone tab