Song name
# A B C D E F G H I J K L M N O P Q R S T U V W X Y Z

Diecast - Fade Away tab

Help us improve GuitareTab! Take a short survey!
                           Fade Away
                            Diecast
                      Internal Revolution

                     This Tab Is Just a "Starting Point" and hopefully someone will 
this tab and make it in guitar pro....!!!...

AND YES... I do know that the actual song is played on a 7 string guitar

TUNING:C# F A# D# G# C#


C# |------------------------------------------------------|
G# |------------------------------------------------------|
D# |------------------------------------------------------|
A# |---------9---9h10--------9-7-9-10-9-7-9-----9---9h10--|
F  |---------7---7-----------7-7-7-7--7-7-7-----7---7-----|
C# |-0-0-0-0---0-----0-0-0-0-----------------0-0--0-------|

C# |------------------------------------------------------|
G# |------------------------------------------------------|
D# |------------------------------------------------------|
A# |--9-9-9-9-7-7---------9---9h10-9-7-9-10-9-7---------9-|
F  |--5-5-5-5-5-5---------7---7----7-7-7-7--7-7---------7-|
C# |--------------0-0-0-0---0-------------------0-0-0-0---|

C# |------------------------------------------------------|
G# |------------------------------------------------------|
D# |------------------------------------------------------|
A# |-9h10-------------------------------------------------|
F  |-7----7-9-10-10-10-5-5----10--10h12--10-9-10-12-10-9--|
C# |-----------------------0-0--0-------------------------|

C# |------------------------------------------------------|
G# |------------------------------------------------------|
D# |------------------------------------------------------|
A# |------------------------------------------------------|
F  |-10-----10---10h12-10-12-12--14-14--------------------|
C# |----0-0---0-------------------------------------------|

C# |-------------------------------------------------------|
G# |---------------------------------13-12-13-/17\15\13-12-|
D# |---------------------12-11-12-14-----------------------|
A# |------------------14-----------------------------------|
F  |-----15-14--12-14--------------------------------------|
C# |-/12---------------------------------------------------|
Related for Fade Away tab