Song name
# A B C D E F G H I J K L M N O P Q R S T U V W X Y Z

Dirge Within - Last Goodbye tab

okay, its me again. Im the guy that wrote out the intro for Force Fed Lies. Once again, 
was fooling around while listening to Dirge and i found an intro :)

so here you go, it doesnt go far, but itll help my fellow tabbers out there to get started


DROP C

(1)                                (2)
d------------------------------- |------------------------------|
a------------------------------- |------------------------------|
F------------------------------- |------------------------------|
C------------------------------- |------------------------------|
G----------2--------2--------2-- |----------2---------2---------|
C-00000000--h3--000--h3--000--3- |--00000000--h3--000--h3-------|
  ********      ***      ***        ********      ***

d----------------------------------|-------------------------|
a----------------------------------|-------------------------|
F----------------------------------|-------------------------|
C----------------------------------|-------------------------|
G-----2-3~------------2--------2---|-------2-------------2---|
C-000--------00000000--h3--000--h3-|--000---3--00000000---h3-|
  ***        ********      ***        ***      ********

d-------------------------|
a-------------------------|
F-------------------------|
C-------------------------|
G------2----------2-3*----|
C-000---h3----000---------|
  ***         ***


Questions? Suggestions? Comments?

Email Me at:

Prattj76@yahoo.com
Tap to rate this tab
# A B C D E F G H I J K L M N O P Q R S T U V W X Y Z