Dirge Within - Inhuman tab

-------------------------------------------------------------------------------
			     Inhuman - Dirge Whitin
-------------------------------------------------------------------------------
Tabbed by: Nick
Email: dyerseve88@yahoo.com

Tuning: Drop D down 2 steps

I figured it out by ear, so I don't have everything.

 Intro

e|--------------------------------------------------------------------------|
B|--------------------------------------------------------------------------|
G|--------------------------------------------------------------------------|
D|-----------------------------8-7------------------------------------------|
A|--7h8p7-5--0-0-0-5---7---8-------0--5-55555-7-8-8888-7-7777---------------|
E|-----------0-0-0---0---0---0--------5-55555-7-8-8888-7-7777---------------|


   Verse

e|--------------------------------------------------------------------------|
B|--------------------------------------------------------------------------|
G|--------------------------------------------------------------------------|
D|--------------------------------------------------------------------------|
A|------------------------------------------------------333-666-------------|
E|-000-5p0-6--0h6p0--0h6p5p0-0h6p5p0h6--0h6p0-000-000-----------------------|


Chorus

e|--------------------------------------------------------------------------|
B|--------------------------------------------------------------------------|
G|--------------------------------------------------------------------------|
D|--------------------------------------------------------------------------|
A|-------787---787---787---7-8----------------------------------------------|
E|-000-0-----3-----5-----7--------------------------------------------------|

  Clean Riff

e|--------------------------------------------------------------------------|
B|--------------------------------------------------------------------------|
G|-----0------0----------------0--------------------------------------------|
D|-0--0-0-0---------2h3-2---------------------------------------------------|
A|---------4-4--0-0-------0-1-1---------------------------------------------|
E|--------------------------------------------------------------------------|


  Bridge

e|--------------------------------------------------------------------------|
B|--------------------------------------------------------------------------|
G|--------------------------------------------------------------------------|
D|-77777-77777-66666-66666-22222-22222-33333-33333--------------------------|
A|-55555-55555-44444-44444-00000-00000-11111-11111--------------------------|
E|--------------------------------------------------------------------------|
Tap to rate this tab
 
# A B C D E F G H I J K L M N O P Q R S T U V W X Y Z