Song name
# A B C D E F G H I J K L M N O P Q R S T U V W X Y Z

Dirty Heads - Day By Day tab

Hey guys i saw a video on youtube of duddy doing this intro so i decided to give it a 
whirl. Not sure if its 100% accurate but it sounds pretty good to me.

Here is a link of Duddy doing the intro:
http://www.youtube.com/watch?v=Pm90Dy0RoYE&feature=g-like

Also here is another video of some guy playing it:
http://www.youtube.com/watch?v=LQXA0JIrkgs&feature=relmfu

0:00 - 0:11
|-------------------------------------------------------------------------------------|
|-------0--0--0---0------------------0---0---0---0-----------------0--0--0--0---------|l
|-------6--6--6---6p9----------------6---6---6---6p9---------------6--6--6--6p9-------|
l---7---7--7--7---7---7p9----7----7--7---7---7------7p9--------7---7--7--7-----7p9----|
l-0------------------------7---7h9--0--------------------7--7h9---0-------------------|
|-------------------------------------------------------------------------------------|l

Play this 1x
e l-------------------------------|l
B l-------------0--0--------------|l
G l-------------6--6--------------|l
D l---------7---7--7--------------|l
A l--7--7h9---0-------------------|l
E l-------------------------------|l

Then this 3x's 0:11 - 0:33
|-------------------------------------------------------------------------------------|
|-------0--0--0---0------------------0---0---0---0-----------------0--0--0--0---------|
|-------6--6--6---6p9----------------6---6---6---6p9---------------6--6--6--6p9-------|l
l---7---7--7--7---7---7p9----7----7--7---7---7------7p9--------7---7--7--7-----7p9l---|
l-0------------------------7---7h9--0--------------------7--7h9---0-------------------|
|-------------------------------------------------------------------------------------|l

e l--------------------------------|l
B l--------------------------------|l
G l--------------------------------|l
D l---------9-9-9-9/7--------------|l
A l--7--7h9------------------------|l
E l--------------------------------|l

0:33-0:41
e l--------------------------------|l
B l--------------------------------|l
G l---9--7--11--6---9--7--6--------|l
D l--11--9--12--7--11--9--7--------|l
A l--------------------------------|l
E l--------------------------------|l

Thats it for the intro the chords used for the song are
  D Chord   A Chord  E Chord
e------------5-----------|
B---7--------5------9----|
G---7--------6------9----|
D---7--------7------9----|
A---5--------7------7----|
E------------5-----------|


Outro I believe is this:
e--------------------------------|
B--------------------------------|
G--7--9---7--6--11--9---7--6-----|
D--9--11--9--7--12--11--9--7-----|
A--------------------------------|
E--------------------------------|
g
d
a
e
Tap to rate this tab
# A B C D E F G H I J K L M N O P Q R S T U V W X Y Z