Song name
# A B C D E F G H I J K L M N O P Q R S T U V W X Y Z

Dirty Pretty Things - Wondering tab

Help us improve GuitareTab! Take a short survey!
-------------------------------------------------------------------------------
			     Wondering - Dirty Pretty Things
-------------------------------------------------------------------------------
Tabbed by: David Aitchison
Email: davidaitchisino@yahoo.co.uk

Tuning: Standard (Eadgbe)
x = Muted Note

Intro.
Guitar #1. Two times...    ...then
e|------------------------|  e|----------------------------------|
B|------------------------|  B|----------------------------------|
G|---7--9--7-----5--------|  G|-7--9--7----5-55--------------12--|(Play 8 times
D|------------7-----------|  D|----------7-------7--5-555555-----|
A|------------------------|  A|----------------------------------|
E|------------------------|  E|----------------------------------|

Guitar #2
e|-5---5---5---5---5---5---3--333333----------------------------------------|
B|-6---5---6---5---6---5---3--333333---121212121212-------------------------|
G|-7---5---7---5---7---5---4--444444---121212121212-------------------------|
D|-7---7---7---7---7---7---5--555555---121212121212-------------------------|
A|-5---7---5---7---5---7---5--555555---101010101010-------------------------|
E|-----5-------5-------5---3--333333----------------------------------------|

Guitar #1. Play Eight Times
e|------------------------------------------|
B|----10---8---10---8-----------------8-----|
G|----------------------10---9---10---------|
D|------------------------------------------|
A|------------------------------------------|
E|------------------------------------------|

Guitar #2.  Play Twice
e|-1111-x-----1111-x------5555-x-5---5555-x-55-----------------|
B|-1111-x-5---1111-x-55---6666-x-5---6666-x-55-----------------|
G|-2222-x-5---2222-x-55---7777-x-5---7777-x-55-----------------|
D|-3333-x-5---3333-x-55---7777-x-7---7777-x-77-----------------|
A|-3333-x-3---3333-x-33---5555-x-7---5555-x-77-----------------|
E|-1111-x-----1111-x-----------x-5--------x-55-----------------|

Verse.1
Guitar #2.  Play Twice
e|-1111-x-----1111-x------5555-x-5---5555-x-55-----------------|
B|-1111-x-5---1111-x-55---6666-x-5---6666-x-55-----------------|
G|-2222-x-5---2222-x-55---7777-x-5---7777-x-55-----------------|
D|-3333-x-5---3333-x-55---7777-x-7---7777-x-77-----------------|
A|-3333-x-3---3333-x-33---5555-x-7---5555-x-77-----------------|
E|-1111-x-----1111-x-----------x-5--------x-55-----------------|

Guitar #1.  Play Twice
e|-------------------------------------------|
B|-10-10-10-8-8-8----------------------------|
G|----------------10-10-9-9-9-9-9-9-9-9------|
D|-------------------------------------------|
A|-------------------------------------------|
E|-------------------------------------------|
            Play Twice
e|-------------------------------------------|
B|-10-10-10-8-8-8-------8-8-8-8-8-8-8-8------|
G|----------------10-10----------------------|
D|-------------------------------------------|
A|-------------------------------------------|
E|-------------------------------------------|

Guitar #2.
e|-55555555------------55555555--55555555----|
B|-66666666--55555555--66666666--55555555----|
G|-77777777--55555555--77777777--55555555----|
D|-77777777--55555555--77777777--55555555----|
A|-55555555--33333333--55555555--33333333----|
E|-------------------------------------------|

e|-55555555--------------------55555555----------------------|
B|-66666666--1212121212121212--66666666--1212121212121212----|
G|-77777777--1212121212121212--77777777--1212121212121212----|
D|-77777777--1212121212121212--77777777--1212121212121212----|
A|-55555555--1010101010101010--55555555--1010101010101010----|
E|-----------------------------------------------------------|

Guitar #1. Play Eight Times
e|------------------------------------------|
B|----10---8---10---8-----------------8-----|
G|----------------------10---9---10---------|
D|------------------------------------------|
A|------------------------------------------|
E|------------------------------------------|

Guitar #2.  Play Twice
e|-1111-x-----1111-x------5555-x-5---5555-x-55-----------------|
B|-1111-x-5---1111-x-55---6666-x-5---6666-x-55-----------------|
G|-2222-x-5---2222-x-55---7777-x-5---7777-x-55-----------------|
D|-3333-x-5---3333-x-55---7777-x-7---7777-x-77-----------------|
A|-3333-x-3---3333-x-33---5555-x-7---5555-x-77-----------------|
E|-1111-x-----1111-x-----------x-5--------x-55-----------------|

Verse.2
Guitar #2.  Play Twice
e|-1111-x-----1111-x------5555-x-5---5555-x-55-----------------|
B|-1111-x-5---1111-x-55---6666-x-5---6666-x-55-----------------|
G|-2222-x-5---2222-x-55---7777-x-5---7777-x-55-----------------|
D|-3333-x-5---3333-x-55---7777-x-7---7777-x-77-----------------|
A|-3333-x-3---3333-x-33---5555-x-7---5555-x-77-----------------|
E|-1111-x-----1111-x-----------x-5--------x-55-----------------|

Guitar #1.  Play Twice
e|-------------------------------------------|
B|-10-10-10-8-8-8----------------------------|
G|----------------10-10-9-9-9-9-9-9-9-9------|
D|-------------------------------------------|
A|-------------------------------------------|
E|-------------------------------------------|
            Play Twice
e|-------------------------------------------|
B|-10-10-10-8-8-8-------8-8-8-8-8-8-8-8------|
G|----------------10-10----------------------|
D|-------------------------------------------|
A|-------------------------------------------|
E|-------------------------------------------|

Guitar #2.
e|-55555555------------55555555--55555555----|
B|-66666666--55555555--66666666--55555555----|
G|-77777777--55555555--77777777--55555555----|
D|-77777777--55555555--77777777--55555555----|
A|-55555555--33333333--55555555--33333333----|
E|-------------------------------------------|

e|-55555555--------------------55555555-----------------------------------|
B|-66666666--1212121212121212--66666666--12121212121212121212121212121212-|
G|-77777777--1212121212121212--77777777--12121212121212121212121212121212-|
D|-77777777--1212121212121212--77777777--12121212121212121212121212121212-|
A|-55555555--1010101010101010--55555555--10101010101010101010101010101010-|
E|------------------------------------------------------------------------|

Guitar #2  Play Four Times.
e|------1-1-1-1--3-3-3-3-3-3-3-3--|
B|-3-3--1-1-1-1--3-3-3-3-3-3-3-3--|
G|-3-3--2-2-2-2--3-3-3-3-3-3-3-3--|
D|-3-3--3-3-3-3--5-5-5-5-5-5-5-5--|
A|-1-1--3-3-3-3--5-5-5-5-5-5-5-5--|
E|------1-1-1-1--3-3-3-3-3-3-3-3--|

Guitar #1. Play Four Times
e|------------------------------------------|
B|----10---8---10---8-----------------8-----|
G|----------------------10---9---10---------|
D|------------------------------------------|
A|------------------------------------------|
E|------------------------------------------|

Guitar #2.  Play Three Times
e|-1111-x-----1111-x------5555-x-5---5555-x-55-----------------|
B|-1111-x-5---1111-x-55---6666-x-5---6666-x-55-----------------|
G|-2222-x-5---2222-x-55---7777-x-5---7777-x-55-----------------|
D|-3333-x-5---3333-x-55---7777-x-7---7777-x-77-----------------|
A|-3333-x-3---3333-x-33---5555-x-7---5555-x-77-----------------|
E|-1111-x-----1111-x-----------x-5--------x-55-----------------|

Guitar #1.  Play Twice
e|-------------------------------------------|
B|-10-10-10-8-8-8----------------------------|
G|----------------10-10-9-9-9-9-9-9-9-9------|
D|-------------------------------------------|
A|-------------------------------------------|
E|-------------------------------------------|
            Play Four Times
e|-------------------------------------------|
B|-10-10-10-8-8-8-------8-8-8-8-8-8-8-8------|
G|----------------10-10----------------------|
D|-------------------------------------------|
A|-------------------------------------------|
E|-------------------------------------------|

Guitar #2.
e|-55555555------------55555555--55555555----|
B|-66666666--55555555--66666666--55555555----|
G|-77777777--55555555--77777777--55555555----|
D|-77777777--55555555--77777777--55555555----|
A|-55555555--33333333--55555555--33333333----|
E|-------------------------------------------|

e|-55555555--------------------55555555-------------------|
B|-66666666--1212121212121212--66666666--1212121212121212-|
G|-77777777--1212121212121212--77777777--1212121212121212-|
D|-77777777--1212121212121212--77777777--1212121212121212-|
A|-55555555--1010101010101010--55555555--1010101010101010-|
E|--------------------------------------------------------|

e|-55555555--------------------55555555-----------------------------------|
B|-66666666--1212121212121212--66666666--12121212121212121212121212121212-|
G|-77777777--1212121212121212--77777777--12121212121212121212121212121212-|
D|-77777777--1212121212121212--77777777--12121212121212121212121212121212-|
A|-55555555--1010101010101010--55555555--10101010101010101010101010101010-|
E|------------------------------------------------------------------------|

Guitar #1. Two times...    ...then
e|------------------------|  e|----------------------------------|
B|------------------------|  B|----------------------------------|
G|---7--9--7-----5--------|  G|-7--9--7----5-55--------------12--|(Play 8 times
D|------------7-----------|  D|----------7-------7--5-555555-----|
A|------------------------|  A|----------------------------------|
E|------------------------|  E|----------------------------------|

Guitar #2
e|-5---5---5---5---5---5---3--333333----------------------------------------|
B|-6---5---6---5---6---5---3--333333---121212121212-------------------------|
G|-7---5---7---5---7---5---4--444444---121212121212-------------------------|
D|-7---7---7---7---7---7---5--555555---121212121212-------------------------|
A|-5---7---5---7---5---7---5--555555---101010101010-------------------------|
E|-----5-------5-------5---3--333333----------------------------------------|

That's it. Please feel free to email me with any corrections or comments.
Related for Wondering tab