Song name
# A B C D E F G H I J K L M N O P Q R S T U V W X Y Z

Dirty Pretty Things - Come Closer tab

Highlighted       Show chord diagrams
D7
[Verse 1]
G        C
Hails to the chances
A           D
As boredom kills like cancer
G             Em
We need dreams for the romancers
A           D
And I'm looking to you
G         C
With life so lonely
A         D
I need my one and only
G               Em
If you know love come on and show me
A           D
Now I'm looking to you
[Chorus]
G
So come closer come closer
Em
come closer come closer
D
come closer
C
My resistance is low
G
So come closer come closer
Em
come closer come closer
D
come closer
C
I'm not letting you go
[Bridge]
E---------------------|
B-1-3-5-3-1-----------|
G---------------------|
D-----------1-3-5-3-1-|
A---------------------|
E---------------------|
[Verse 2]
G             C
Had alone and I set it free
A             D
But it never came back to me
G
Now the skies all fall ugly
Em
From Bolton To Rugby
A            D
As I'm looking for you
[Chorus]
G
So come closer come closer
Em
come closer come closer
D
come closer
C
My resistance is low
G
Don't pay mind to them
Em
your mind's beautiful when
D
You don't bother
C
So just let it go
[Bridge]
E---------------------|
B-1-3-5-3-1-----------|
G---------------------|
D-----------1-3-5-3-1-|
A---------------------|
E---------------------|
[Verse 3]
F
Hit the piper, I'll feed the rat
C
And I won't mind, I won't mind
F
Smash the campus and burn the maps
C
I guess we'll be fine
A             D
Your loved and you are able
A             D
Shall we write that in your grave
[Chorus]
G
So come closer come closer
Em
come closer come closer
D
come closer
C
My resistance is low
G
Don't pay mind to them
Em
your mind's beautiful when
D
You don't bother
C
So just let it go
[Bridge]
E----------------------3-|
B-1-3-5-3-1------------3-|
G----------------------0-|
D-----------1-3-5-3-1--0-|
A----------------------2-|
E----------------------3-|
Tap to rate this tab
# A B C D E F G H I J K L M N O P Q R S T U V W X Y Z