Song name
# A B C D E F G H I J K L M N O P Q R S T U V W X Y Z

Dirty Projectors - Temecula Sunrise tab

----------------------------------------------------
TEMECULA SURISE - Dirty Projectors - from BITTE ORCA
----------------------------------------------------

Tabbed by: Kris Ellestad
Date: August 18th, 2009
Email: knilstad@gmail.com
Site: knilstad.blogspot.com

LEGEND:

| ^  brush up
| s  slide
| h  hammer-on
| p  pull-off
| .  staccato
| R  let ring
| g  grace note (note preceding 'g', played faster than hammer-on)

Standard tuning
Capo on 7th fret

I've indicated rhythm loosely throughout this tab, but it's up to your ear to
figure out the tricky parts and tempo changes.  The intro feels like it's accented
every four eighths, so I've barred it off as if it was in 2/4.  The rest
of the song has a 6/8 swing to it, so everything but the intro has 2 beats
to a bar, 3 eights to each beat.  Have fun trying to sing to this!

Enjoy!


INTRO:

e|------------|------------|-----------|---------0-|-------.--|-.---------|
B|-0--3--0----|-------1----|-1s3-------|-3p1-------|-0-----3--|-1---------|
G|----------2-|-0----------|---------0-|-----------|----0--4--|-2-------0-|
D|----0-------|------------|-----------|------4----|----------|---2-0h2---|
A|-2-----2--0-|----------0-|------2----|-----------|----------|-----------|
E|------------|-3----------|-----------|-----------|----------|-----------|

e|------------|------------|-----------|--------5p0-|---------.--|-.-------------|
B|-0--3--0----|-------1----|-1s3-------|-3p1--------|-3p1p0---3--|-1-------------|
G|----------2-|-0----------|---------0-|------------|---------4--|-2---------0h2-|
D|----0-------|------------|-----------|------4-----|------------|---0g2-0h2-----|
A|-2-----2--0-|----------0-|------2----|------------|------------|---------------|
E|------------|-3----------|-----------|------------|------------|---------------|

e|-----------------|-----------|-----------|--------5p0-|---------.--|-.-----------|
B|-0---3---0-------|------1----|-1s3-------|-3p1--------|-3p1p0---3--|-1-----------|
G|-------------2---|-0---------|---------0-|------------|---------4--|-2---------0-|
D|-------0---------|-----------|-----------|------4-----|------------|---0g2-0h2---|
A|---2-------0-----|---------0-|------2----|------------|------------|-------------|
E|---------------3-|-----------|-----------|------------|------------|-------------|

                                                      R
e|----------------0-|---0s2------0-----0s2---2---2---^2-----|
B|-0-3-0----------1-|---1s3---0--1-----1s3---3---3---^3-----|
G|-------2-0------0-|---0-----0--0-----0-----2---2---^2-----|
D|---0--------------|-0-------0-----0------0---0---0------0-|
A|-2---2-0----------|-------0-------------------------------|
E|---------3---0----|---------------------------------------|


VERSES 1 & 2:

e|------------------|-----------------|---------0-------|-.--.-----------|
B|-0--3--0----------|-1-----1s3-------|-3p1--------0----|-3--1-----------|
G|----------2--0----|---------------0-|---------------0-|-4--2---------0-|
D|----0-------------|-----------------|------4----------|------0g2-0h2---|
A|-2-----2--0-------|----0-------2----|-----------------|----------------|
E|-------------3----|-----------------|-----------------|----------------|

e|------------------|-----------------|--------5p0-------|-.--.-----------|
B|-0--3--0----------|-1-----1s3-------|-3p1--------3p1p0-|-3--1-----------|
G|----------2--0----|---------------0-|------------------|-4--2-------0h2-|
D|----0-------------|-----------------|------4-----------|------2-0h2-----|
A|-2-----2--0-------|----0-------2----|------------------|----------------|
E|-------------3----|-----------------|------------------|----------------|

e|-----------------------|-----------------|--------5p0-------|-.--.---------|
B|-0---3---0-------------|-1-----1s3-------|-3p1--------3p1p0-|-3--1---------|
G|-------------2----0----|---------------0-|------------------|-4--2-------0-|
D|-------0---------------|-----------------|------4-----------|------2-0h2---|
A|---2-------0-----------|----0-------2----|------------------|--------------|
E|---------------3-----0-|-----------------|------------------|--------------|

e|------------------|-----------------|--------5p0-------|-.--.---------|
B|-0--3--0----------|-1-----1s3-------|-3p1--------3p1p0-|-3--1---------|
G|----------2--0----|---------------0-|------------------|-4--2-------0-|
D|----0-------------|-----------------|------4-----------|------2-0h2---|
A|-2-----2--0-------|----0-------2----|------------------|--------------|
E|-------------3----|-----------------|------------------|--------------|


BRIDGE:
    .     .    R                     .     .    R
e|-^8----^5---^3-|----^0----------|-^8----^5---^3-|----^0--------|
B|-^5----^3---^1-|----^1----------|-^5----^3---^1-|----^1--------|
G|-^7----^4---^2-|----^2----------|-^7----^4---^2-|----^2----0---|
D|-^5----^4---^2-|--------2s7-5-0-|-^5----^4---^2-|--------2---0-|
A|-----0---------|-0--------------|-----0---------|-0------------|
E|---------------|----------------|---------------|--------------|

    .     .    R                     .     .    
e|-^8----^5---^3-|----^0----------|-^8----^5---^3-|-----------------------|
B|-^5----^3---^1-|----^1----------|-^5----^3---^1-|---------3-------------|
G|-^7----^4---^2-|----^2----------|-^7----^4---^2-|---0h2h4---4p2p0---0---|
D|-^5----^4---^2-|--------2s7-5-0-|-^5----^4---^2-|-----------------0---0-|
A|-----0---------|-0--------------|-----0---------|-0---------------------|
E|---------------|----------------|---------------|-----------------------|

    .     .    R                     .     .    R
e|-^8----^5---^3-|----^0----------|-^8----^5---^3-|----^0----------|
B|-^5----^3---^1-|----^1----------|-^5----^3---^1-|----^1----------|
G|-^7----^4---^2-|----^2----------|-^7----^4---^2-|----^2----------|
D|-^5----^4---^2-|--------2s7-5-0-|-^5----^4---^2-|--------2s7-5-0-|
A|-----0---------|-0--------------|-----0---------|-0--------------|
E|---------------|----------------|---------------|----------------|

    .     .    R                     .     .    
e|-^8----^5---^3-|----^0----------|-^8----^5---^3-|-----------------------|
B|-^5----^3---^1-|----^1----------|-^5----^3---^1-|---------3-------------|
G|-^7----^4---^2-|----^2----------|-^7----^4---^2-|---0h2h4---4p2p0---0---|
D|-^5----^4---^2-|--------2s7-5-0-|-^5----^4---^2-|-----------------0---0-|
A|-----0---------|-0--------------|-----0---------|-0---------------------|
E|---------------|----------------|---------------|-----------------------|

    .     .    R
e|-^8----^5---^3-|----^0--------5-|-------5--------5-|-------5----------|
B|-^5----^3---^1-|----^1----------|-8--------8-------|-8--------8-------|
G|-^7----^4---^2-|----^2----------|----7--------7----|----7--------7--4-|
D|-^5----^4---^2-|--------2s7-5---|------------------|------------------|
A|-----0---------|-0--------------|------------------|------------------|
E|---------------|----------------|------------------|------------------|


CHORUS:

e|-5---------------|------^7-----|--------------------|------------------|-R----------|-----------|
B|----4--------3h5-|------^3-----|-1s3-----3-----3----|-3--------1-------|-0---.---.--|-.---.---.-|
G|-------5--4------|------^4-----|------4-----4-----4-|----4--2-----2--0-|-----0---2--|-4---5---7-|
D|-----------------|-5----^5-----|--------------------|------------------|------------|-----------|
A|-----------------|-------------|--------------------|------------------|---------0--|-2---3---5-|
E|-----------------|-------------|--------------------|------------------|-----3------|-----------|

e|-5---------------|------^7-----|--------------------|------------------|-R----------|-----------|
B|----4--------3h5-|------^3-----|-1s3-----3-----3----|-3--------1-------|-0---.---.--|-.---.-.-.-|
G|-------5--4------|------^4-----|------4-----4-----4-|----4--2-----2--0-|-----0---2--|-4---5-7-9-|
D|-----------------|-5----^5-----|--------------------|------------------|------------|-----------|
A|-----------------|-------------|--------------------|------------------|---------0--|-2---3-5-7-|
E|-----------------|-------------|--------------------|------------------|-----3------|-----------|

e|-5---------------|------^7-----|--------------------|------------------|-R---.---.--|-.---.------|
B|----4--------3h5-|------^3-----|-1s3-----3-----3----|-3--------1-------|-0---1---3--|-5---7--7---|
G|-------5--4------|------^4-----|------4-----4-----4-|----4--2-----2--0-|------------|------------|
D|-----------------|-5----^5-----|--------------------|------------------|---------0--|-2---4-4--4-|
A|-----------------|-------------|--------------------|------------------|-----3------|------------|
E|-----------------|-------------|--------------------|------------------|------------|------------|


SOLO ACCOMPANIMENT:
      .     .    R
e||--^8----^5---^3-|----^0-----------||
B||--^5----^3---^1-|----^1-----------||
G||*-^7----^4---^2-|----^2----------*||  X 9 (with variations on 4th beat as in the BRIDGE)
D||*-^5----^4---^2-|--------2s7-5-0-*||
A||------0---------|-0---------------||
E||----------------|-----------------||


THIRD VERSE:
(this melody also accompanies the second verse)
e||--------10-|-8----7---5---|-3---------0s2-|-----0s2------||
B||------8----|---10---8---7-|---5p3p0---1s3-|-0---1s3--0---||
G||*----------|--------------|---------------|-0--------0--*||
D||*----------|--------------|---------------|-------------*||
A||-----------|--------------|---------------|--------------||
E||-----------|--------------|---------------|--------------||

  ***See below
e||-----------|----------|-------0s2-|----0s2-----||
B||-----------|----------|-------1s3-|-0--1s3-0---||
G||*----------|----------|-----------|-0------0--*||  X 4
D||*----------|----------|-----------|-----------*||
A||-----------|----------|-----------|------------||
E||--3-----3--|-3-----3--|-3---------|-3------3---||


***On the third time through a second guitar plays this:
e||--------------------|-----------------|--------5p0-------|-.--.----------||
B||--0--3--0-----------|-1-----1s3-------|-3p1--------3p1p0-|-3--1----------||
G||*----------2--0-----|---------------0-|------------------|-4--2-------0-*||
D||*----0--------------|-----------------|------4-----------|------2-0h2---*||
A||--2-----2--0--------|----0-------2----|------------------|---------------||
E||--------------3---0-|-----------------|------------------|---------------||


BRIDGE into final CHORUS:

e|-5--------5-------|-5--------5--------|-5--------5-------|-5--------5-------|
B|----8--------8----|----8--------8-----|----8--------8----|----8--------8----|
G|-------7--------7-|-------7--------7--|-------7--------7-|-------7--------4-|
D|------------------|-------------------|------------------|------------------|
A|------------------|-------------------|------------------|------------------|
E|------------------|-------------------|------------------|------------------|


FINAL CHORD:

    R
e|-^0-----||
B|-^8-----||
G|-^4-----||
D|-^5-----||
A|--------||
E|--------||


Tap to rate this tab
# A B C D E F G H I J K L M N O P Q R S T U V W X Y Z