Song name
# A B C D E F G H I J K L M N O P Q R S T U V W X Y Z

Dishwalla - Give tab

Band: Dishwalla
Song: Give

The tabs and chords are spaced to line up with the lyrics so, 
listen to the song to get the feel...

Intro/Verse:

       I have felt the comfort...            Now what did I do...
    G                   A7            C               B7
E|--3~----------------------------------------------------------1~--|
B|--3~--------------------------------------3~-1~---------------0~--|
G|--0~------------------------6-----------0-------------------2-----|
D|--0~----------------------5---5~------2-----------------1---------|
A|--2~------------------5/7-------7~--3---------------2-------------|
E|--3~--------------------------------------------------------------|


       Idle my emptiness...          And how it     keeps returning to... 
    G           A7            C              B7         
E|--3~------------------------------------------------------------0~--|
B|--3~----------------5-------------3--------1--------------------0~--|
G|--0~------------------6~--------0------------0------------2---------|
D|--0~--------------5-----5~----2----------------2--------1-----------|
A|--2~----------5/7-----------3---------------------2-----------------|
E|--3~----------------------------------------------------------------|



Chorus:

         That I want to remain...       A child with you forever...
    Em                     B7      Em7                 A7
E|-----------------------------------------------------0~---0~--------|
B|------0~---------------------0~------0~--------------2~---2~--------|
G|----0----------------------0-------0-----------------0~---0~--------|
D|--2----------------------1-------0-------------------2~---2~--------|
A|-----------------------------------------------------0~---0~--------|
E|--------------------------------------------------------------------|


Chorus End:
           What would you give?...    What would you give?
    C                          B7
E|-----------------------------------0~-------------------------------|
B|--------3~-1~----------------------0~-------------------------------|
G|------0--------------------------2----------------------------------|
D|----2--------------------------1------------------------------------|
A|--3--------------------------2--------------------------------------|
E|--------------------------------------------------------------------|


Solo:
NOTE: Any note that should ring out or be repeated (sometimes multiple
times) will be followed by an 'r'. Once again, listen to the song for the feel.

       Em             B7             Em7            A7 
e|----------------------------------------5-7-5---5----5r-------------------|
B|--------7---7-8-7------7---7-8-7------8-------8------5r-------------------|
G|---7-9r---9-------9-8r---9-------9-7r-------------6r-6r-------------------|
D|-9------------------------------------------------------------------------|
A|--------------------------------------------------------------------------|
E|--------------------------------------------------------------------------|

   Em                  B7                  Em7                A7
e|-----------7-------------------7-------------------7--------10/12r--------|
B|------8-10---10-8-10------8-10---10-8-10------8-10---10-8-----------------|
G|-9r-9----------------8r-9----------------7r-7-------------7---------------|
D|--------------------------------------------------------------------------|
A|--------------------------------------------------------------------------|
E|--------------------------------------------------------------------------|

   C   B7   C   B7    ...to Chorus
e|-12r/11r--12r/11r--|
B|-13r/12r--13r/12r--|
G|-------------------|
D|-------------------|
A|-------------------|
E|-------------------|



Tap to rate this tab
# A B C D E F G H I J K L M N O P Q R S T U V W X Y Z