Song name
# A B C D E F G H I J K L M N O P Q R S T U V W X Y Z

Dispatch - Mission tab

---------------------------------------------------------------------------
			     "Mission" - Dispatch
---------------------------------------------------------------------------
Tabbed by:  Johnny Hox
Email:  freedfan83@yahoo.com

Tuning: standard


Play 6 times, 2x Intro, 4x Verse 1:

e|-4---6---4------4---6---4-----------------------------------------------|
B|-6---7---6------4---6---4-----------------------------------------------|
G|-6---8---6------5---6---5-----------------------------------------------|
D|-6---8---6------6---8---6-----------------------------------------------|
A|-4---6---4------6---8---6-----------------------------------------------|
E|-4---6---4------4---6---4-----------------------------------------------|


Chorus(1st time) 4x:   "Lo, we are not so..."

e|-6---2---1--------------------------------------------------------------|
B|-6---2---1--------------------------------------------------------------|
G|-6---3---2--------------------------------------------------------------|
D|-8---4---3--------------------------------------------------------------|
A|-8---4---3--------------------------------------------------------------|
E|-6---2---1--------------------------------------------------------------|  


Post Chorus 1x:   "To be, so well.." (reggae strum)

e|-4---4---2---4----------------------------------------------------------|
B|-4---6---2---4----------------------------------------------------------|
G|-5---6---3---5----------------------------------------------------------|
D|-6---6---4---6----------------------------------------------------------|
A|-6---4---4---6----------------------------------------------------------|
E|-4---4---2---4----------------------------------------------------------|
 

Play 5 times now, 1x intro, 4x verse 2:

e|-4---6---4------4---6---4-----------------------------------------------|
B|-6---7---6------4---6---4-----------------------------------------------|
G|-6---8---6------5---6---5-----------------------------------------------|
D|-6---8---6------6---8---6-----------------------------------------------|
A|-4---6---4------6---8---6-----------------------------------------------|
E|-4---6---4------4---6---4-----------------------------------------------|


Chorus(2nd time) 4x:   "Lo, we are not so..." 

e|-6---2---1--------------------------------------------------------------|
B|-6---2---1--------------------------------------------------------------|
G|-6---3---2--------------------------------------------------------------|
D|-8---4---3--------------------------------------------------------------|
A|-8---4---3--------------------------------------------------------------|
E|-6---2---1--------------------------------------------------------------|  
 

Post Chorus 1x:   "To be, so well.." (reggae strum)

e|-4---4---2---4----------------------------------------------------------|
B|-4---6---2---4----------------------------------------------------------|
G|-5---6---3---5----------------------------------------------------------|
D|-6---6---4---6----------------------------------------------------------|
A|-6---4---4---6----------------------------------------------------------|
E|-4---4---2---4----------------------------------------------------------|


Bridge 1x:   "That we are not so..." (reggae strum)

e|--2---1---4---1------2---1---4---1---------1---2------------------------|
B|--2---2---4---2------2---2---4---1---------1---2------------------------|
G|--3---3---5---3------3---3---5---2---------2---3------------------------|
D|--4---3---6---3------4---3---6---3---------3---4------------------------|
A|--4---1---6---1------4---1---6---3---------3---4------------------------|
E|--2-------4----------2-------4---1---------1---2------------------------|
                                        (distortion leading into solo part)

Solo Part x4:           

e|-6---2---1---------------4---4---2---4----------------------------------|
B|-6---2---1---------------4---6---2---4----------------------------------|
G|-6---3---2---------------5---6---3---5----------------------------------|
D|-8---4---3---------------6---6---4---6----------------------------------|
A|-8---4---3---------------6---4---4---6----------------------------------|
E|-6---2---1---------------4---4---2---4----------------------------------|
                        (reggae strum part)

Verse 3, x2:

e|-4---6---4------4---6---4-----------------------------------------------|
B|-6---7---6------4---6---4-----------------------------------------------|
G|-6---8---6------5---6---5-----------------------------------------------|
D|-6---8---6------6---8---6-----------------------------------------------|
A|-4---6---4------6---8---6-----------------------------------------------|
E|-4---6---4------4---6---4-----------------------------------------------|


Chorus(3rd time) 4x:

e|-6---2---1--------------------------------------------------------------|
B|-6---2---1--------------------------------------------------------------|
G|-6---3---2--------------------------------------------------------------|
D|-8---4---3--------------------------------------------------------------|
A|-8---4---3--------------------------------------------------------------|
E|-6---2---1--------------------------------------------------------------|

End of Song.
===========================================================================
Tap to rate this tab
# A B C D E F G H I J K L M N O P Q R S T U V W X Y Z