Song name
# A B C D E F G H I J K L M N O P Q R S T U V W X Y Z

Dispatch - Circles Around The Sun tab

--| Circles Around The Sun |--| Dispatch |--| Tab |--| Elias Landin |--


|-------------|
|       EADGBe|
|Gsus4: 330033|
|Gsus2: 300033|
|-------------|

Tuning: Standard


                                      -| CAPO 1st FRET |-

Intro:

e |-0--0-0-0-0-0-0-0-0-0-0-0-0--0-0-0-0-0-0-0-0-0-0-0-0-0-0---|     |
B |-5--5-5-5-5-5-5-5-5-5-5-0-1--1-1-1-1-1-1-1-1-1-1-1-3-5-3---|     |
G |-----------------------------------------------------------|     |
D |-----------------------------------------------------------|     |
A |-----------------------------------------------------------|     |
E |-----------------------------------------------------------|     |
                                                                    | x2
e |-0-0-0-0-0-0-0-0-0-0-0-0-0--0-0-0-0-0-0-0-0-0-0-0-0--------|     |
B |-3-3-3-3-3-3-3-3-3-3-3-0-----------------------------------|     |
G |-------------------------2--2-2-2-2-2-2-2-2-2-4-2-0--------|     |
D |-----------------------------------------------------------|     |
A |-----------------------------------------------------------|     |
E |-----------------------------------------------------------|     |


            Em
When he was born
              C
The Doc said What's this?
              G
He's much too small
                D
It's like he's weightless

             Em
When he turned six
             C
They ran some tests
                  G
They said it's for science
       D
It's patriotic

 A                      C                G           ( G - Gsus4 - G - Gsus2 - G )
Ah let's send him where no one else has gone
 A            C              G
After all he cannot speak or walk
                       D
Let's send him at the moon
                       A
Do circles 'round the sun

               Em
When he was twelve
               C
The time had come then
              G
And with his eyes
              D
He said he loved them

              Em
In came the suits
               C
In came the government
                G
She stood and cried
               D
She could not keep him


 A                      C                G           ( G - Gsus4 - G - Gsus2 - G )
Ah let's send him where no one else has gone
 A            C              G
After all he cannot speak or walk
                       D
Let's send him at the moon
                       A
Do circles 'round the sun

Em - C - G - D
Em - C - G - D - D

 C
But he came back
 C
Yeah he came back
 C                                            Em
He came back with a smile as big as the whole world

                    G
The doctors where shocked by his vital signs
 D                      A
She said would you like to go home now?


e |-0--0-0-0-0-0-0-0-0-0-0-0-0--0-0-0-0-0-0-0-0-0-0-0-0-0-0---|     |
B |-5--5-5-5-5-5-5-5-5-5-5-0-1--1-1-1-1-1-1-1-1-1-1-1-3-5-3---|     |
G |-----------------------------------------------------------|     |
D |-----------------------------------------------------------|     |
A |-----------------------------------------------------------|     |
E |-----------------------------------------------------------|     |
                                                                    | x2
e |-0-0-0-0-0-0-0-0-0-0-0-0-0--0-0-0-0-0-0-0-0-0-0-0-0--------|     |
B |-3-3-3-3-3-3-3-3-3-3-3-0-----------------------------------|     |
G |-------------------------2--2-2-2-2-2-2-2-2-2-4-2-0--------|     |
D |-----------------------------------------------------------|     |
A |-----------------------------------------------------------|     |
E |-----------------------------------------------------------|     |

Em - G - A - C
Em - G - A - C

Em - C-G - C-G - C-G - C-D
Em - C-G - C-G - C-G - C-D

 A                      C                G           ( G - Gsus4 - G - Gsus2 - G )
Ah let's send him where no one else has gone
 A            C              G
After all he cannot speak or walk
                       D
Let's send him at the moon
                       A           Em
Do circles 'round the sun
Tap to rate this tab
# A B C D E F G H I J K L M N O P Q R S T U V W X Y Z