Song name
# A B C D E F G H I J K L M N O P Q R S T U V W X Y Z

Divididos - El 38 tab

great song!!

chords and riff are here so I put it like guitar tab


    E     D     G
e|--0-----2-----3--|
B|--0-----3-----0--|
G|--1-----2-----0--|
D|--2-----0-----0--|
A|--2-----0-----2--|
E|--0-----------3--|


Riff

e|-----------------------------------------------|
B|-----------------------------------------------|
G|-----------------------------------------------|
D|--2--5--2--------------------------------------|
A|-----------5--2--5--2--5--2--5--2--5--2--5--2--|
E|-----------------------------------------------|


e|-----------------------------------------------|
B|-----------------------------------------------|
G|-----------------------------------------------|
D|--2--5--2-----------------------2--------------|
A|-----------5--2--5--2--5--2--5-----------------|
E|-----------------------------------------------|


hope it's okay...
Tap to rate this tab
 
# A B C D E F G H I J K L M N O P Q R S T U V W X Y Z