Song name
# A B C D E F G H I J K L M N O P Q R S T U V W X Y Z

Dmx - Whats My Name tab

What's My Name - DMX

Here ya go... if ya get confused

e|----------------------------------------------------------------------------|
B|-7-7---7-7-6-7-6-5---7---7-7-6-7-6------------------------------------------|
G|-----------------------------------5----5-5-4-5-5----5-5-4-5-5----5-5-4-5-5-|
D|----------------------------------------------------------------------------|
A|----------------------------------------------------------------------------|
E|----------------------------------------------------------------------------|

"COME ON!"

e|---------------------------------------|
B|--7-7-7--------------------------------|
G|--------------7---------7---------7----|
D|--------9-9-9---9-9-9-9---9-9-9-9---9--|
A|---------------------------------------|
E|---------------------------------------|
Tap to rate this tab
 
# A B C D E F G H I J K L M N O P Q R S T U V W X Y Z