Song name
# A B C D E F G H I J K L M N O P Q R S T U V W X Y Z

Dmx - X Gonna Give It To Ya tab

This song is really fun to play and all the other tabs were in the wrong key and 
not fully complete so here you go here's the correct tab( your guitar needs to be dropped D ) 
enjoy


INTRO
e|--------------------------------------------------|
B|--------------------------------------------------|
G|--------------------------------------------------|
D|--888----666----444----111------------------------|
A|--------------------------------------------------|
D|88-----66-----44-----11---------------------------|

e|--------------------------------------------------|
B|--------------------------------------------------|
G|--------------------------------------------------|
D|--------------------------------------------------|
A|--------------------------------------------------|
D|8------6------4------1----------------------------|

e|--------------------------------------------------|
B|--------------------------------------------------|
G|--------------------------------------------------|
D|--888----666----444----111------------------------|
A|--------------------------------------------------|
D|88-----66-----44-----11---------------------------|


e|--------------------------------------------------|
B|--------------------------------------------------|
G|--------------------------------------------------|
D|--------------------------------------------------|
A|--------------------------------------------------|
D|8------6------4------1----------------------------|



REST OF SONG ( repeat until the song )
e|--------------------------------------------------|
B|--------------------------------------------------|
G|--------------------------------------------------|
D|--888----666----444----111------------------------|
A|--------------------------------------------------|
D|88-----66-----44-----11---------------------------|

e|--------------------------------------------------|
B|--------------------------------------------------|
G|--------------------------------------------------|
D|8------6------4------1----------------------------|
A|--------------------------------------------------|
D|--------------------------------------------------|

e|--------------------------------------------------|
B|--------------------------------------------------|
G|--------------------------------------------------|
D|--888----666----444----111------------------------|
A|--------------------------------------------------|
D|88-----66-----44-----11---------------------------|

e|--------------------------------------------------|
B|--------------------------------------------------|
G|--------------------------------------------------|
D|8--88--6--66--4--44--1--11------------------------|
A|--------------------------------------------------|
D|--------------------------------------------------|

Tap to rate this tab
 
# A B C D E F G H I J K L M N O P Q R S T U V W X Y Z