Song name
# A B C D E F G H I J K L M N O P Q R S T U V W X Y Z

Do Make Say Think - A Tender History In Rust tab

Hey people
I've been looking everywhere for this tab but couldn't find it. 
So I decided to tab it. It was hellishly hard to figure out the tuning, but I
think its pretty darn close. This is my first tab, Lord have mercy.

If you got corrections email at: ashoe_99@yahoo.com

Play 4 times
f|-0----------------------------0-------------------------------------------|
c|----0-----0-----0-----0--10-----------------------------------------------|
f|-----0-----0-----0-7h9-9---0----------------------------------------------|
D|-------------5h7--------0-------7-----------------------------------------|
F|-------5h7----------------------------------------------------------------|
F|-0----------------------------0-------------------------------------------|

f|-0-----0--0-----0--0-----0--0-----0--0-----0--0-----0---------------------|
c|---0--------0--------0--------0--------0--------0-------------------------|
f|----0--------0--------0--------0--------0--------0------------------------|
D|-0----0---5----0---7----7---7----7---0----0---5----5----------------------|
F|--------------------------------------------------------------------------|
F|--------------------------------------------------------------------------|


f|--------------------------------------------------------------------------|
c|-0-----0--0-----0--0-----0--0-----0---------------------------------------|
f|---4--------4--------0--------0-------------------------------------------|
D|----5--------5--------0--------0------------------------------------------|
F|-5----5---5----5---2----2---4----4----------------------------------------|
F|--------------------------------------------------------------------------|

f|-4-----4--4-----4--4-----4--4-----4---------------------------------------|
c|---0--------0--------0--------0-------------------------------------------|
f|----0--------0--------0--------0------------------------------------------|
D|-0----0---0----0---0----0---0----0----------------------------------------|
F|--------------------------------------------------------------------------|
F|--------------------------------------------------------------------------|

Then back to the intro
f|-0----------------------------0-------------------------------------------|
c|----0-----0-----0-----0--10-----------------------------------------------|
f|-----0-----0-----0-7h9-9---0----------------------------------------------|
D|-------------5h7--------0-------7-----------------------------------------|
F|-------5h7----------------------------------------------------------------|
F|-0----------------------------0-------------------------------------------|

It's not fully complete thought.
There are a couple variations, but it's the same basic structure.
Maybe I'll post the rest later once I figure it out. Or let someone else work
with it. Hope it's helpfull.
Tap to rate this tab
 
# A B C D E F G H I J K L M N O P Q R S T U V W X Y Z