Song name
# A B C D E F G H I J K L M N O P Q R S T U V W X Y Z

Doa - Thirteen tab

Verse
G-----------------------------|-----------------------------|
D---------------3--3-3--------|---------------3--3-3--------|
A-0--0-0-3--3-3--------0--0-0-|-0--0-0-3--3-3--------0--0-0-|
E-----------------------------|-----------------------------|

G-----------------------------|-----------------------------|
D---------------3--3-3--------|---------------3--3-3--------|
A-0--0-0-3--3-3--------0--0-0-|-0--0-0-3--3-3--------0--0-0-|
E-----------------------------|-----------------------------|

G-----------------------------|-----------------------------|
D---------------3--3-3--------|---------------3--3-3--------|
A-0--0-0-3--3-3--------0--0-0-|-0--0-0-3--3-3--------0--0-0-|
E-----------------------------|-----------------------------|

Chorus
G-------------|-------------|-------------|-------------|
D-3*----------|-3*--2-2-2-2-|-3*----------|-3*--2-2-2-2-|
A---------0-0-|-------------|---------0-0-|-------------|
E-------------|-------------|-------------|-------------|

Verse
G-----------------------------|-----------------------------|
D---------------3--3-3--------|---------------3--3-3--------|
A-0--0-0-3--3-3--------0--0-0-|-0--0-0-3--3-3--------0--0-0-|
E-----------------------------|-----------------------------|

G-----------------------------|-----------------------------|
D---------------3--3-3--------|---------------3--3-3--------|
A-0--0-0-3--3-3--------0--0-0-|-0--0-0-3--3-3--------0--0-0-|
E-----------------------------|-----------------------------|

G-----------------------------|-----------------------------|
D---------------3--3-3--------|---------------3--3-3--------|
A-0--0-0-3--3-3--------0--0-0-|-0--0-0-3--3-3--------0--0-0-|
E-----------------------------|-----------------------------|

Chorus
G-------------|-------------|-------------|-------------|
D-3*----------|-3*--2-2-2-2-|-3*----------|-3*--2-2-2-2-|
A---------0-0-|-------------|---------0-0-|-------------|
E-------------|-------------|-------------|-------------|

Solo
G-----------------------------|-----------------------------|
D---------------3--3-3--------|---------------3--3-3--------|
A-0--0-0-3--3-3--------0--0-0-|-0--0-0-3--3-3--------0--0-0-|
E-----------------------------|-----------------------------|

G-----------------------------|-----------------------------|
D---------------3--3-3--------|---------------3--3-3--------|
A-0--0-0-3--3-3--------0--0-0-|-0--0-0-3--3-3--------0--0-0-|
E-----------------------------|-----------------------------|

Bridge                                          x4
G-------------------------------------------------|
D-------------------------------------------------|
A-0-0-0-0-0-0-3-3-3-3-3-3-------------0-0-0-0-0-0-|
E-------------------------1-1-1-1-1-1-------------|

Verse
G-----------------------------|-----------------------------|
D-----------------------------|---------------3--3-3--------|
A-0--0-0-3--3-3--------0--0-0-|-0--0-0-3--3-3--------0--0-0-|
E---------------1--1-1--------|-----------------------------|

G-----------------------------|-----------------------------|
D---------------3--3-3--------|---------------3--3-3--------|
A-0--0-0-3--3-3--------0--0-0-|-0--0-0-3--3-3--------0--0-0-|
E-----------------------------|-----------------------------|

Chorus
G-------------|-------------|-------------|-------------|
D-3*----------|-3*--2-2-2-2-|-3*----------|-3*--2-2-2-2-|
A---------0-0-|-------------|---------0-0-|-------------|
E-------------|-------------|-------------|-------------|

Outro
G-----------------------------|-----------------------------|
D---------------3--3-3--------|---------------3--3-3--------|
A-0--0-0-3--3-3--------0--0-0-|-0--0-0-3--3-3--------0--0-0-|
E-----------------------------|-----------------------------|

G-----------------------------|-----------------------------|
D---------------3--3-3--------|---------------3--3-3--------|
A-0--0-0-3--3-3--------0--0-0-|-0--0-0-3--3-3--------0--0-0-|
E-----------------------------|-----------------------------|

G-----------------------------|-----------------------------|
D---------------3--3-3--------|---------------3--3-3--------|
A-0--0-0-3--3-3--------0--0-0-|-0--0-0-3--3-3--------0--0-0-|
E-----------------------------|-----------------------------|

G----------------|
D----------------|
A-0-0--0-0--0-0--|
E----------------|
Tap to rate this tab
# A B C D E F G H I J K L M N O P Q R S T U V W X Y Z