Song name
# A B C D E F G H I J K L M N O P Q R S T U V W X Y Z

Does It Offend You Yeah - We Are Rockstars tab

Help us improve GuitareTab! Take a short survey!
Artist: Does It Offend You, Yeah?
Song: We Are Rockstars
Album: You Have No Idea What You're Getting Yourself Into


Synth Riff:
e|-------------------------13\-------|
B|-----------------------------------|
G|-----------------------------------|
D|-----------------------------------|
A|-----------------15-14-------------|
E|--11------/14-14-------------------|

Bass Riff:
G|-------------------------------|
D|-------------------------------|
A|----6-----/9-9-8-6-------------|
E|-------------------------------|

Yeah!

B5                    G#5              D#5                      B5
You're all rock stars now in a network town there's no place to go
B5            G#5                     D#5                    B5
To be on your own, making friends and foes watch the network grow,
B5              G#5                    D#5                B5
Will you find a time when you're not online standing all alone,
B5                        G#5                    D#5                    D#5
Where's your real friends now? you have let them down you're a download pal

Yeah!


=============
Synth Riff x4
Bass Riff x16
Verse
Synth Riff x4
Bass Riff x16
Verse
Synth Riff x4
Bass Riff x32
Related for We Are Rockstars tab