Song name
# A B C D E F G H I J K L M N O P Q R S T U V W X Y Z

Does It Offend You Yeah - All The Same tab

All the Same
Does It Offend You, Yeah?

INTRODUCTION (READ IT FIRST): To learn this get it on your iPod and throw it through 
some headphones.

The rhythm guitar in this song uses a lot of improv-type changes to the verse riff that 
don't change the basic sound behind the rest of the instruments so I will lay out the 
basic riff and leave the improv to you.




Verse:

Guitar 1
e|--------------------------------------------------------|
B|--------------------------------------------------------|
G|--------------------------------------------------------|
D|--------------------------------------------------------|
A|--------------------------------------------------------|
E|--0--0-----0--0--0-----0--0--0-----0--/12--12-----------|
(Same basic riff throughout verse)

Guitar 2
e|------16------16------16-------12--------|
B|--19------19------19-------16------------|
G|-----------------------------------------|
D|-----------------------------------------|
A|-----------------------------------------|
E|-----------------------------------------|




Chorus:

Guitar 1
e|----------------------------|
B|----------------------------|
G|----------------------------|
D|----9----11----7----2-------|
A|----9----11----7----2-------|
E|----7----9----5----0--------|

Guitar 2:
e|--19---14-16---12-14-12-14-16-12--------------|
B|----------------------------------------------|
G|----------------------------------------------|
D|----------------------------------------------|
A|----------------------------------------------|
E|----------------------------------------------|    x2

e|--19--14--16--19--16--14--14--16--19--16--12-------|
B|---------------------------------------------------|
G|---------------------------------------------------|
D|---------------------------------------------------|
A|---------------------------------------------------|
E|---------------------------------------------------|   x2




Break:

Guitar 1/2:
e|-------------------------------------------------------------------------|
B|-------------------------------------------------------------------------|
G|------13-----11-----9-----8-----6---4------------------------------------|
D|------------------------------------------------2------------------------|
A|--11------9------7-----6-----4------2-----------2------------------------|
E|------------------------------------------------0------------------------|

Song Order:
Verse
Chorus
Verse
Chorus
Break
Chorus
Tap to rate this tab
 
# A B C D E F G H I J K L M N O P Q R S T U V W X Y Z