Dogwood - Out Of The Picture tab

Dogwood - "Out of the Picture" - More than Conquerors [Db,Ab,Db,Gb,Bb,Eb]
Tabbed By Jordan Fuller 7/24/10 Dont Copy My Stuff!

Intro Rythem

Db:1-1-1-1-1-1-1-1-1-1-1-1-1-1-1-4-4-4-4-4-4-4-4-4-4-4-4-4-4-4-4-4-4-|
Ab:1-1-1-1-1-1-1-1-1-1-1-1-1-1-1-4-4-4-4-4-4-4-4-4-4-4-4-4-4-4-4-4-4-|
Db:1-1-1-1-1-1-1-1-1-1-1-1-1-1-1-4-4-4-4-4-4-4-4-4-4-4-4-4-4-4-4-4-4-|
Gb:------------------------------------------------------------------|
Bb:------------------------------------------------------------------|
Eb:------------------------------------------------------------------|

Intro Lead

Db:------------------------------4-4-4-4-4-4-4-4-4-4-4-4-4-4-4-4-4-4-|
Ab:9-9-9-9-9-9-9-9-9-9-9-9-9-8-7-4-4-4-4-4-4-4-4-4-4-4-4-4-4-4-4-4-4-|
Db:x-x-x-x-x-x-x-x-x-x-x-x-x-x-x-4-4-4-4-4-4-4-4-4-4-4-4-4-4-4-4-4-4-|
Gb:11111111111111111111111111109-------------------------------------|
Bb:------------------------------------------------------------------|
Eb:------------------------------------------------------------------|

Intro Rythem(Part2)

Db:------------------------------6-6-6-6-6-6-6-6-6-4-4-4-4-4-4-4-4-4-|
Ab:4-4-4-4-4-4-4-4-4-4-4-4-4-4-3-6-6-6-6-6-6-6-6-6-4-4-4-4-4-4-4-4-4-|
Db:6-6-6-6-6-6-6-6-6-6-6-6-6-6-6-6-6-6-6-6-6-6-6-6-4-4-4-4-4-4-4-4-4-|
Gb:------------------------------------------------------------------|
Bb:------------------------------------------------------------------|
Eb:------------------------------------------------------------------|

Intro Lead(Part2)

Db:4-4-4-4-4-4-4-4-4-4-4-4-4-4-4----------------------------------------|
Ab:4-4-4-4-4-4-4-4-4-4-4-4-4-4-4///1212121212121212119-121212121212119--|
Db:4-4-4-4-4-4-4-4-4-4-4-4-4-4-4///x-x-x-x-x-x-x-x-x-x-x-x-x-x-x-x-x----|
Gb:-----------------------------///141414141414141413111414141414141311-|
Bb:---------------------------------------------------------------------|
Eb:---------------------------------------------------------------------|

Verse

Db:------------------------------4-4-4-4-4-4-4-4-4-3-3-3-3-3-3-3-3-3-3-|
Ab:4-4-4-4-4-4-4-4-6-6-6-6-6-6-6-4-4-4-4-4-4-4-4-4-3-3-3-3-3-3-3-3-3-3-|
Db:6-6-6-6-6-6-6-6-8-8-8-8-8-8-8-4-4-4-4-4-4-4-4-4-6-6-6-6-6-6-6-6-6-6-|
Gb:6-6-6-6-6-6-6-6-8-8-8-8-8-8-8---------------------------------------|
Bb:--------------------------------------------------------------------|
Eb:--------------------------------------------------------------------|

Verse(Part2) - clean

Db:--------------------------------------------------------------------|
Ab:4---------6--------9----------9-------------------------------------|
Db:---6---------8--------11-------11-----------------------------------|
Gb:-------6--------8---------11----11----------------------------------|
Bb:-------6--------9---------------------------------------------------|
Eb:--------------------------------------------------------------------|

Bridge distortion

Db:--------------------------------------------------------------------|
Ab:4-4-4-4-4-4-4-4-6-6-6-6-6-6-6-6-8-8-8-8-8-8-8-8-9-9-9-9-9-9-9-9-----|
Db:6-6-6-6-6-6-6-6-8-8-8-8-8-8-8-8-10101010101010101111111111111111----|
Gb:6-6-6-6-6-6-6-6-8-8-8-8-8-8-8-8-10101010101010101111111111111111----|x2
Bb:--------------------------------------------------------------------|
Eb:--------------------------------------------------------------------|

Outro

Db:----------------4-4-4-4-4-4-4-4-3-3-3-3-3-3-3-3---------------------|
Ab:4-4-4-4-4-4-4-4-4-4-4-4-4-4-4-4-3-3-3-3-3-3-3-3-6-6-6-6-6-6-6-6-4-3-|
Db:6-6-6-6-6-6-6-6-6-6-6-6-6-6-6-6-6-6-6-6-6-6-6-6-8-8-8-8-8-8-8-8-6-6-|
Gb:6-6-6-6-6-6-6-6---------------------------------8-8-8-8-8-8-8-8-6-6-|
Bb:--------------------------------------------------------------------|
Eb:--------------------------------------------------------------------|

Last Note w/tremelo

Db:---------|
Ab:----4----|
Db:----6----|
Gb:----4----|
Bb:----6----|
Eb:----4----|

Message Me For Any Problems...Enjoy!
Tap to rate this tab
 
# A B C D E F G H I J K L M N O P Q R S T U V W X Y Z