Song name
# A B C D E F G H I J K L M N O P Q R S T U V W X Y Z

Dogwood - Through Thick And Thin tab

----------------------------------------------------------------------------
Band:Dogwood
Song:"Through Thick and Thin"
Album: Through Thick & Thin
By:Jordan Fuller
----------------------------------------------------------------------------

Intro

Eb:-------------------------------------------------------------------------|
Bb:-------------------------------------------------------------------------|
Gb:-------------------------------------------------------------------------|
Db:8--ph6--6--------10------------8-----------------------------------------|
Ab:6-------6--s8-6--10-11-10-8----8-10-8-6----------------------------------|
Db:--------6--------10------------8-----------------------------------------|


Last Time Intro
Eb:-------------------------------------------------------------------------|
Bb:-------------------------------------------------------------------------|
Gb:-------------------------------------------------------------------------|
Db:8--ph6--6--------10------------8-pm8-8-8-8-8-8-8-8-8-8-8-8---------------|
Ab:6-------6--s8-6--10-11-10-8----8-pm8-8-8-8-8-8-8-8-8-8-8-8---------------|
Db:--------6--------10------------8-pm8-8-8-8-8-8-8-8-8-8-8-8---------------|

Chorus

Eb:-------------------------------------------------------------------------|
Bb:-------------------------------------------------------------------------|
Gb:-------------------------------------------------------------------------|
Db:8-pm8-8-8-8-8-8-8-8-8-8-8-6-6-6-6-6-6-10-10-10-10-10-10-10-10------------|
Ab:8-pm8-8-8-8-8-8-8-8-8-8-8-6-6-6-6-6-6-10-10-10-10-10-10-10-10------------|
Db:8-pm8-8-8-8-8-8-8-8-8-8-8-6-6-6-6-6-6-10-10-10-10-10-10-10-10------------|

Bridge

Eb:-------------------------------------------------------------------------|
Bb:-------------------------------------------------------------------------|
Gb:-------------------------------------------------------------------------|
Db:10-10-10-10-10-10-13-13-13-13-13-13-6-6-6-6-6-6-6-8-8-8-8-8-8-8-8--------|
Ab:10-10-10-10-10-10-13-13-13-13-13-13-6-6-6-6-6-6-6-8-8-8-8-8-8-8-8--------|
Db:10-10-10-10-10-10-13-13-13-13-13-13-6-6-6-6-6-6-6-8-8-8-8-8-8-8-8--------|


Intro x3
Intro Last Time x1
Chorus x4
Intro x3
Intro Last Time x1
Chorus x4
Bridge x2
Intro x3
Intro Last Time x1

Enjoy!
Tap to rate this tab
 
# A B C D E F G H I J K L M N O P Q R S T U V W X Y Z