Song name
# A B C D E F G H I J K L M N O P Q R S T U V W X Y Z

Dominic Miller - Rush Hour tab

Dominic Miller
Rush Hour
Tabbed by Almir Nametak, Jan 2011
mokra@starmo.co.uk

Main theme/riff only. Will try and complete eventually

Please tune top E to D

..and all played fast please

E-------------------------------------------------------------------------|
B-------------------------------------------------------------------------|
G-------------------------------------------------------------------------|
D-------------------------------------------------------------------------|
A----------3-0-5-0-3-0-0------3-5-------3-0-5-0-3-0-0-------3-0-5-0-3-0-0-|
D-0-3-0-5-7-----------5-5-3-0-3-5--7-5-7-----------5-3-0-5-0-----------5--|

E------------------------------------------------------------------------|
B------------------------------------------------------------------------|
G------------------------------------------------------------------------|
D------------------------------------------------------------------------|
A-------3-5-------3-0-5-0-3-0-0-----0-3-0-5-0-3-0-0------3-5-------3-0-5-|
D-5-3-0-3-5--7-5-7-----------5-3-0-5-------------5-5-3-0-3-5--7-5-7------|

E------------------------------------------------------------------------|
B------------------------------------------------------------------------|
G------------------------------------------------------------------------|
D------------------------------------------------------------------------|
A-0-3-0-0-------3-0-5-0-3-0-0-----6-5-4-3-4\3-3\2-2\1--------------------|
D------5-3-0-5-0-----------5-5-3-0-------------------7\6-3-2-0-----------|

E-------------------------------------------------------------------------|
B-------------------------------------------------------------------------|
G-------------------------------------------------------------------------|
D-------------------------------------------------------------------------|
A----------3-0-5-0-3-0-0------3-5-------3-0-5-0-3-0-0-------3-0-5-0-3-0-0-|
D-0-3-0-5-7-----------5-5-3-0-3-5--7-5-7-----------5-3-0-5-0-----------5--|

E------------------------------------------------------------------------|
B------------------------------------------------------------------------|
G------------------------------------------------------------------------|
D------------------------------------------------------------------------|
A-------3-5-------3-0-5-0-3-0-0-----0-3-0-5-0-3-0-0------3-5-------3-0-5-|
D-5-3-0-3-5--7-5-7-----------5-3-0-5-------------5-5-3-0-3-5--7-5-7------|

E--------------------------------------------------------------------------|
B--------------------------------------------------------------------------|
G--------------------------------------0-0-0-0-0-0-0--0--0-0-0-0-0-0-0--0--|
D--------------------------------------3-3-5-5-7-7-10-10-3-3-5-5-7-7-10-10-|
A-0-3-0-0-------3-0-5-0-3-0-0------3-5-3-3-5-5-7-7-10-10-3-3-5-5-7-7-10-10-|
D------5-3-0-5-0-----------5-5-3-0-3-5-3-3-5-5-7-7-10-10-3-3-5-5-7-7-10-10-|

E------------------------------------------------------------------------|
B------------------------------------------------------------------------|
G-0-0-0-0-0-0-0-0-0------------------------------------------------------|
D-3-3-5-5-7-7-3-3-0------------------------------------------------------|
A-3-3-5-5-7-7-3-3-0------------------------------------------------------|
D-3-3-5-5-7-7-3-3-0------------------------------------------------------|

E--------0---------------------------------------------------------------|
B------6--6--------6-----------------------------------------------------|
G-------7--7------5-5--will complete once--------------------------------|
D-----8-----8----7-------------------------------------------------------|
A------------------------------------------------------------------------|
D----8----------7--------------------------------------------------------|
Tap to rate this tab
 
# A B C D E F G H I J K L M N O P Q R S T U V W X Y Z