Song name
# A B C D E F G H I J K L M N O P Q R S T U V W X Y Z

Dominic Miller - Shape Of My Heart tab

--------------------------------------------
Shape of My Heart - Sting and Dominic Miller
--------------------------------------------

The main riff is played throughout the song. Thereís a key change towards the end, 
but thatís easy to work out as you just transpose the whole tab down a half step.


e|---------------|---------------|---------------|---------------|
B|---------------|---------------|---------------|---------------|
G|--14-------14--|--13-------13--|--11-------11--|--11----10-----|
D|--------11-----|--------11-----|--------9------|-----9-----9---|
A|---------------|---------------|---------------|---------------|
E|-----14--------|--12-12--------|--10-10--------|--9-----9------|


e|---------------|---------------|---------------|---------------|
B|---------------|---------------|---------------|---------------|
G|--14-------14--|--13-------13--|--11-------11--|--11----10-----|
D|--------12-----|--------11-----|--------9------|-----9-----9---|
A|---------------|---------------|---------------|---------------|
E|-----14--------|--12-12--------|--10-10--------|--9-----9------|


e|---------------|---------------|---------------|---------------|
B|---------------|---------------|-----5-----5---|--------6------|
G|--------11-----|--10-----------|-----2-h4--2---|---------------|
D|-----9-----9---|--------11-----|---------------|-----6---------|
A|---------------|-----------9---|---------------|--4------------|
E|--10-----------|---------------|--5------------|---------------|


e|--5------------|--2------------|--2------------|---------------|
B|--7-----5------|--2------------|--2------------|---------------|
G|--7--------7---|--4------------|--2------------|---------------|
D|--7------------|--4-----4--2---|--4------------|---------------|
A|--5------------|--2------------|--4------------|---------------|
E|--5------------|--4------------|--2------------|---------------|
Tap to rate this tab
# A B C D E F G H I J K L M N O P Q R S T U V W X Y Z