Song name
# A B C D E F G H I J K L M N O P Q R S T U V W X Y Z

Don Dokken - Stay tab

SONG: STAY
ALBUM: UP FROM THE ASHES
TABBED BY: FERSWITCH625
EMAIL: SWITCH625_@HOTMAIL.COM this tab is 90% correct thank me  later if you have john 
tabs please email me thanks

EBTUNING

Clean guitar Em9           Cadd9           dadd9       G   d/f#

E------------------------------5----------------------------0---------------|
B---------------3~--3~-3~--------5--------------3--------------3------------|
G------------0----------------------7--------------2-----0------------------|
D---------4-----------------7-----------7~--5---------4---------------------|
A------2--------------------------------------------------------------------|
E----0----------------------------------------------------------------------|
     EM9            CADD9       DADD9        CADD9
E------------------------------5----------------3~---------------------------|
B---------------3-3~--------------5-------------3~---------------------------|
G-----------0-------------------------7---------5~---------------------------|
D-------4--------------7------------------------5~---------------------------|
A----2-----------------5-----------------------------------------------------|
E--0-------------------------------------------------------------------------|

Riff 1   with dist

E-----------------------------------------------------------------------------|
B---------------------------------------------------------------12------------|
G---------------------------------------------------------------11------------|
D--9-7--9---7--5~--7~-7~---9--7--9---7--5---7~--------2---/-2----9------------|
A--7-7--7---7--5~--5~-4~---7--7--7---7--5---5~--------0---/-4-----------------|
E-----------------------------------------------0--3--------------------------|
Tap to rate this tab
# A B C D E F G H I J K L M N O P Q R S T U V W X Y Z