Song name
# A B C D E F G H I J K L M N O P Q R S T U V W X Y Z

Doors - Build Me A Woman tab

this is all i got somebody needs to put this up and i hope this starts 'em off

            "BUILD ME A WOMAN" by The Doors

|-----------------------------------------------------------------------------------|
|-----------------------------------------------------------------------------------|
|-----------------------------------------------------------------------------------|
|----------------------------------------------------2--4--5-4p2-----2--4--5-4p2----|
|---2--4--5-4p2-----2--4--5-4p2-----2--4--5-4p2-----------------3b--------------3b--|
|---------------3b---------------3b--------------3b---------------------------------|


|-------------------------------------------------------------------------|
|------------------------------------------3---3--2--2---0--0-------------|
|--------------------------------------2s4---4---3--3--2--2---1-1-2-------|
|--------------------------------------------------------------------2~~--|
|---2--4--5-4p2-----2--4--5-4p2-------------------------------------------|
|---------------3b---------------3b---------------------------------------|



sorry about it being incomplete but,i have much shorter tabs up

-bert
Tap to rate this tab
# A B C D E F G H I J K L M N O P Q R S T U V W X Y Z