Song name
# A B C D E F G H I J K L M N O P Q R S T U V W X Y Z

Doors - Runnin Blue tab

Song: Runnin Blue
Artist: The Doors
Album: Soft Parade
Tunning: Standard
Tabbed By: INDIE NATION


Legend:
    5r3 means begin with string fretted at 3rd fret
        but bent up 1 whole step then ring the bend down
    "x" = Mute string
    "p" = Pull off


                    Am   G                        Am   G
|-------------------0-0x-3-33---------------------0-0x-3-33-|
|---5r3-1-------1---1-1x-0-00-1-3--3b5-1------1---1-1x-0-00-|
|---------2p0-----2-2-2x-0-00------------2p0----2-2-2x-0-00-|
|-------------2-----2-2x-0-00---------------2-----2-2x-0-00-|
|-------------------0-0x-2-22---------------------0-0x-2-22-|
|------------------------3-33--------------------------3-33-|

  Bm   A      C           Bm   A      C           Bm   A 
|-2-2x-0-00---0--0--0-00--2-2x-0-00---0--0--0-00--2-2x-0-00-|
|-3-3x-2-22---1--1--1-11--3-3x-2-22---1--1--1-11--3-3x-2-22-|
|-4-4x-2-22---0--0--0-00--4-4x-2-22---0--0--0-00--4-4x-2-22-|
|-4-4x-2-22---2--2--2-22--4-4x-2-22---2--2--2-22--4-4x-2-22-|
|-2-2x-0-00---3--3--3-33--2-2x-0-00---3--3--3-33--2-2x-0-00-|
|-----------------------------------------------------------|

  D     A     E     A         D     A     E
 {-repeat 3x-------------}               {-repeat 2x-----}
|-2-2-0-0-0-0-0-0-0-0-0-0-| |-2-2-0-0-0-0-0-0-0-0-0-0-0-0-|
|-3-3-0-2-2-0-0-0-0-2-2-0-| |-3-3-0-2-2-0-0-0-0-0-0-0-0-0-|
|-2-2-0-2-2-0-1-1-1-2-2-0-| |-2-2-0-2-2-0-1-1-1-1-1-1-1-1-|
|-0-0-0-2-2-0-2-2-2-2-2-0-| |-0-0-0-2-2-0-2-2-2-2-2-2-2-2-|
|-------0-0-0-2-2-2-0-0-0-| |-------0-0-0-2-2-2-2-2-2-2-2-|
|-------------0-0-0-------| |-------------0-0-0-0-0-0-0-0-|

                      Am   G
 {-repeat 2x-------------------}
|---------------------0-0x-3-33-|
|--1-3-3b5-1------1---1-1x-0-00-|
|------------2p0----2-2-2x-0-00-|
|---------------2-----2-2x-0-00-|
|---------------------0-0x-2-22-|
|--------------------------3-33-|

  Bm   A      C           Bm   A      C           Bm   A
|-2-2x-0-00---0--0--0-00--2-2x-0-00---0--0--0-00--2-2x-0-00-|
|-3-3x-2-22---1--1--1-11--3-3x-2-22---1--1--1-11--3-3x-2-22-|
|-4-4x-2-22---0--0--0-00--4-4x-2-22---0--0--0-00--4-4x-2-22-|
|-4-4x-2-22---2--2--2-22--4-4x-2-22---2--2--2-22--4-4x-2-22-|
|-2-2x-0-00---3--3--3-33--2-2x-0-00---3--3--3-33--2-2x-0-00-|
|-----------------------------------------------------------|

  Am  Cm  Am  F#m
 {-repeat 4x-----}
|---0---3---0---2-|
|---1---4---1---2-|
|---2---5---2---2-|
|---2---5---2---4-|
|-0---3---0-----4-|
|-------------2---|

 Gm  Am  Dm   C   Fm   A    G    F     A#     A     G    F  
|-3---0---1---0---1--1-0--0-3--3-1--1--11-11-00-00-33-33-11-11-|
|-3---1---2---1---3--3-2--2-0--0-1--1--33-33-22-22-00-00-11-11-|
|-3---2---3---0---3--3-2--2-0--0-2--2--33-33-22-22-00-00-22-22-|
|-5---2---0---2---3--3-2--2-0--0-3--3--33-33-22-22-00-00-33-33-|
|-5---0-------3---1--1-0--0-2--2-3--3--11-11-00-00-22-22-33-33-|
|-3-------------------------3--3-1--1--------------33-33-11-11-|

                                                      Am   G
  A#    A     G     E            {-repeat 2x-------------------}
|-11-11-00-00-33-33-0-0-00-0-0-||---------------------0-0x-3-33-|
|-33-33-22-22-00-00-0-0-00-0-0-||--1-3-3b5--1-----1---1-1x-0-00-|
|-33-33-22-22-00-00-1-1-11-1-1-||------------2p0----2-2-2x-0-00-|
|-33-33-22-22-00-00-2-2-22-2-2-||---------------2-----2-2x-0-00-|
|-11-11-00-00-22-22-2-2-22-2-2-||---------------------0-0x-2-22-|
|-------------33-33-0-0-00-0-0-||--------------------------3-33-|

  Bm   A      C           Bm   A      C           Bm   A
|-2-2x-0-00---0--0--0-00--2-2x-0-00---0--0--0-00--2-2x-0-00-|
|-3-3x-2-22---1--1--1-11--3-3x-2-22---1--1--1-11--3-3x-2-22-|
|-4-4x-2-22---0--0--0-00--4-4x-2-22---0--0--0-00--4-4x-2-22-|
|-4-4x-2-22---2--2--2-22--4-4x-2-22---2--2--2-22--4-4x-2-22-|
|-2-2x-0-00---3--3--3-33--2-2x-0-00---3--3--3-33--2-2x-0-00-|
|-----------------------------------------------------------|

  D     A     E     A         D     A     E
 {-repeat 3x-------------}               {-repeat 2x-----}
|-2-2-0-0-0-0-0-0-0-0-0-0-| |-2-2-0-0-0-0-0-0-0-0-0-0-0-0-|
|-3-3-0-2-2-0-0-0-0-2-2-0-| |-3-3-0-2-2-0-0-0-0-0-0-0-0-0-|
|-2-2-0-2-2-0-1-1-1-2-2-0-| |-2-2-0-2-2-0-1-1-1-1-1-1-1-1-|
|-0-0-0-2-2-0-2-2-2-2-2-0-| |-0-0-0-2-2-0-2-2-2-2-2-2-2-2-|
|-------0-0-0-2-2-2-0-0-0-| |-------0-0-0-2-2-2-2-2-2-2-2-|
|-------------0-0-0-------| |-------------0-0-0-0-0-0-0-0-|

  D     A     E     A
 {-repeat 3x-------------}    D     A     E
|-2-2-0-0-0-0-0-0-0-0-0-0-| |-2-2-0-0-0-0-0-0-0-0-0-0-0-0-|
|-3-3-0-2-2-0-0-0-0-2-2-0-| |-3-3-0-2-2-0-0-0-0-0-0-0-0-0-|
|-2-2-0-2-2-0-1-1-1-2-2-0-| |-2-2-0-2-2-0-1-1-1-1-1-1-1-1-|
|-0-0-0-2-2-0-2-2-2-2-2-0-| |-0-0-0-2-2-0-2-2-2-2-2-2-2-2-|
|-------0-0-0-2-2-2-0-0-0-| |-------0-0-0-2-2-2-2-2-2-2-2-|
|-------------0-0-0-------| |-------------0-0-0-0-0-0-0-0-|

  Dm    Am    E     Am
 {-repeat 3x-------------}    Dm    Am      E A
|-1-1-0-0-0-0-0-0-0-0-0-0-| |-1-1-0-0-0-0---0-0-|
|-3-3-0-1-1-0-0-0-0-1-1-0-| |-3-3-0-1-1-1---0-2-|
|-2-2-0-2-2-0-1-1-1-2-2-0-| |-2-2-0-2-2-2---1-2-|
|-0-0-0-2-2-0-2-2-2-2-2-0-| |-0-0-0-2-2-2---2-2-|
|-------0-0-0-2-2-2-0-0-0-| |-------0-0-0---2-0-|
|-------------0-0-0-------| |---------------0---|

Tap to rate this tab
 
# A B C D E F G H I J K L M N O P Q R S T U V W X Y Z