Song name
# A B C D E F G H I J K L M N O P Q R S T U V W X Y Z

Doors - Not To Touch The Earth tab

Song: Not To Touch The Earth
Artist: The Doors
Album: Waiting For The Sun
Tabbed By: INDIE NATION

- Hope you enjoy this Doors classic as much as is do

Guitar 1 (D A D G B E) - Robbie Krieger

 4/4 time

Intro
|--------------------|
|--------------------|
|--------------------| x6
|--------------------|
|---0---0---0---0----|
|-0---0---1---1------|

Verse          *= play first time only
|---------------------------------|        |---|
|---------------------------------|        |---|
|---------------------------------| x16    |---|
|------------0------------0-------|        |---|
|-0*-5b6r(5)---10b11r(10)---------|        |---|
|---------------------------------|        |-0-|


Chorus ("run with me...")
  Gm                                  Fm
|-3--3--3-----------------------------1--1--1--------------------|
|-3--3--3--8-8-8-7-7-7-6-6-6-5-5-5----1--1--1--6-6-6-5-5-5-4-4-4-|
|-3--3--3--------------------------7--1--1--1--------------------|
|-5--5--5-----------------------------3--3--3--------------------|
|-5--5--5-----------------------------3--3--3--------------------|
|-5--5--5-----------------------------3--3--3--------------------|

           Gm
|----------3--3--3---------------------------------|
|-3-3-3----3--3--3--8-8-8-7-7-7-6-6-6-5-5-5--------|
|-------5--3--3--3--------------------------7------|
|----------5--5--5---------------------------------|
|----------5--5--5---------------------------------|
|----------5--5--5----------------------------0----|

Riff 1
|--------------------|
|--------------------|
|--------------------|
|--------------------|
|---2---2---2---3----|
|-2---2---3---3------|

Verse 2
          repeat until   ("...czar")
|-----------0-6b7r(6)-0--|  |----------------|        |------|
|-0-5b6r(5)--------------|  |----------------|        |------|
|------------------------|  |----------------|repeat  |------|
|------------------------|  |----------------|        |------|
|------------------------|  |4b5-4b5-4b5-4b5-|        |------|
|------------------------|  |----------------|        |-0----|

Chorus 2
  Am                                  Gm
|-5--5--5-----------------------------3--3--3--------------------|
|-5--5--5--8-8-8-7-7-7-6-6-6-5-5-5----3--3--3--6-6-6-5-5-5-4-4-4-|
|-5--5--5--------------------------7--3--3--3--------------------|
|-7--7--7-----------------------------5--5--5--------------------|
|-7--7--7-----------------------------5--5--5--------------------|
|-7--7--7-----------------------------5--5--5--------------------|

           Am
|----------5--5--5---------------------------------|
|-3-3-3----5--5--5--8-8-8-7-7-7-6-6-6-5-5-5--------|
|-------5--5--5--5--------------------------7------|
|----------7--7--7---------------------------------|
|----------7--7--7---------------------------------|
|----------7--7--7----------------------------0----|

Riff 2
|------------------------|
|------------------------|
|------------------------| repeat until solo
|------------------------|
|-8----8----9----9-------|
|---10---10---10---10----|

Guitar Solo
|-------------------------------------------------------------------|
|-------------------------------------------------------------------|
|------------------13h15-13-15b17r(15)p13----13-15b17r(15)p13-------|
|------------13h15------------------------15------------------15-13-|
|-/15--13h15--------------------------------------------------------|
|-------------------------------------------------------------------|

 - 2 bars of organ improvise then 2 bars of Jim doing his thing

|--------------------------------------------------------|       |        |
|--16-16-16-15-15-15-14--13-13-13------------------------|       |        |
|---------------------------------15b17-15p13----13-15-13|organ 2| vocals |
|---------------------------------------------15---------| bars  |  2 bars|
|--------------------------------------------------------|       |        |
|--------------------------------------------------------|       |        |

|----16b17r(16)-13---------------|      |------------------------------|
|------------------16b17r(16)-13-|      |------------------------------|
|--------------------------------|      |--15b17-15b17r(15)p13----13---|
|--------------------------------|      |----------------------15----15|
|--------------------------------|      |------------------------------|
|--------------------------------|      |------------------------------|

|---16b18-----------------------------|
|---------13------16b17r(16)b17-------|
|-------------------------------13----|
|-------------------------------------|
|-------------------------------------|
|-------------------------------------|

|----------------------------13-15-16-15-13-16-15-13-17-16-14-17-16-14-|
|-------------------13-15-16-------------------------------------------|
|-15b17-15-15----13----------------------------------------------------|
|-------------15-------------------------------------------------------|
|----------------------------------------------------------------------|
|----------------------------------------------------------------------|
                         ("I can do anything")
-----------------------------------------------------|
-----------------------------------------------------|
-7---9--10--7----------------------------------------|
-6---8---9--6----0-----------------------------0-----|
-5---7---8--5----0-----------------------------0-----|
-0---0---0--0----0-----------------------------0-----|

That's it the other tab on here was a little too vague for me personally

                                Enjoy
Tap to rate this tab
# A B C D E F G H I J K L M N O P Q R S T U V W X Y Z