Song name
# A B C D E F G H I J K L M N O P Q R S T U V W X Y Z

Doors - Land Ho tab

                            Land Ho!
                           The Doors
                          Morrison Hotel
        Alright well this is my first tab but im pretty sure this is correct. This tab 
for the little Licks or solo's after Jim Sings.
       Bend-b
       hammer-h
       pulloff-P
       Bend back and release- Br
       Vibrato-~
This old man was gracefull...
E---------------------|
B---------------------|
G-----9b11br7---7~~~--|
D------------9--------|
A---------------------|
E---------------------|

Smoked a briar pipe and...
E--------------------------------|
B-----10b12br10-7h10-------------|
G---------------------9b-9-7h9h7-|
D--------------------------------|
A--------------------------------|
E--------------------------------|

Songs of shady sisters...
E--------------------------|
B----12b15-10-12-----------|
G----------------9b11-9-7~-|
D--------------------------|
A--------------------------|
E--------------------------|

Songs of love and songs of death...
E-------------------------------|
B-------------------------------|
G---9b11b9-7---7--9-9b11br9h7~~-|
D-------------9-----------------|
A-------------------------------|
E-------------------------------|

Songs that set me free...
E------------|
B------------|
G---9b11-9~~-|
D------------|
A------------|
E------------|

Hey!
E------------|
B------------|
G---9b11-9~~-|
D------------|
A------------|
E------------|

Little Solo Bit (1:40)
E------------------------------------------------|
B------------------------------------------------|
G-----7-9-9b11-7-9-7-----7-9-9b11b9-7-9-9b11-7---|
D---9----------------9-------------------------9-|
A------------------------------------------------|
E------------------------------------------------|

A course for pots unread...
E--------------|
B--------------|
G-----7-9-9b11-|
D---9----------|
A--------------|
E--------------|

Solo (2:58)Marry You, marry you...
E------------------------------------------------------------------------|
B------------------------------10b12-12br10-7-10-7-----------------------|
G--------7-9-9b11-9b11b9-7h9-----------------------9b11b9-7-9b11-9-7h9h7-|
D-----7h9----------------------------------------------------------------|
A--7h9-------------------------------------------------------------------|
E------------------------------------------------------------------------|

E--------------------------------------------------------------------|
B---------------------------------10b12-10p7-------------------------|
G--------7-9b11-7h9h7-7h9h7------------------9-9b11-7-9-9b11-9-7h9h7-|
D-----7h9-------------------9-7-9------------------------------------|
A--7h9---------------------------------------------------------------|
E--------------------------------------------------------------------|

E-------/10-7----7---------------------|
B-------------10---7-------------------|
G--------------------9-7---9b11-7-9b11-|
D--9-7-------------------9-------------|
A--------------------------------------|
E--------------------------------------| Just continue to solo around in the same scale.
Tap to rate this tab
# A B C D E F G H I J K L M N O P Q R S T U V W X Y Z