Song name
# A B C D E F G H I J K L M N O P Q R S T U V W X Y Z

Dope - Im Back tab

I looked and couldn't believe nobody had tabbed this amazing song
I found a whole load of tabs from the official Dope fansite a few years ago
and they are VERY reliable. So I thought I'd better post them on here

I'm Back by Dope
Album: American Apathy
Tuning: Drop B (B F# B E G# C#)
there's some variation here and there that i haven't write cause they can be
easily found by listening

Verse
C#|---------------|
G#|---------------|
E |---------------|
B |-66-xx-xx-xxxx-|
F#|-66-xx-xx-xxxx-|
B |-66-xx-xx-xxxx-|

Fill 1
C#|----|
G#|----|
E |----|
B |----|
F#|----|
B |-/6-|

Chorus
C#|--------------------------------------------------------------|
G#|--------------------------------------------------------------|
E |---------------------------5-7--------------------------------|
B |-1-0-xx-xx-xxxx-1-0-xx-xx-----1-0-xx-xx-xxxx-1-0-xx-6--1------|
F#|-1-0-xx-xx-xxxx-1-0-xx-xx-3-5-1-0-xx-xx-xxxx-1-0-xx-6--1------|
B |-1-0-xx-xx-xxxx-1-0-xx-xx-----1-0-xx-xx-xxxx-1-0-xx-6--1------|

Fill 2
hard to hear... mess around with the 0 and 6 of the low B string

Interlude
C#|------------------------|
G#|------------------------|
E |------------------------|
B |-6-00-0000-6-00-6-00----|
F#|-6-00-0000-6-00-6-00----|
B |-6-00-0000-6-00-6-00----|
PM    -- ----   --   ------|

Song Structure
Bush speach
Verse
Fill 1
Chorus
Verse
Fill 1
Chorus
Fill 2
Interlude
Verse
Fill 1
Chorus
Tap to rate this tab
 
# A B C D E F G H I J K L M N O P Q R S T U V W X Y Z