Song name
# A B C D E F G H I J K L M N O P Q R S T U V W X Y Z

Dover - Let Me Out tab

-------------------------------------------------------------------------------
			     LET ME OUT - Dover
-------------------------------------------------------------------------------
Tabbed by:Luis Gustavo Hernández Collado
Email:ltavo_87@hotmail.com

Tuning:EADGBe

Intro
e|-------------------|
B|-------------------|
G|-----------------3-|
D|-----(1)-(1)-(1)---|
A|-6/1---(1)-(1)-----|
E|-------------------|

Verse 1 (clean)
(The phone is ringing, the clock is ticking, just let me out...)
e|-------------------------------|
B|-------------------------------|
G|-------------------------------|X2
D|-8-8-88-5-5-55-3-3-33-3-3-3333-|
A|-8-8-88-6-6-66-5-5-55-x-x-xxxx-|
E|-6-6-66-6-6-66-6-6-66-5-5-5555-|

e|---------------------------|
B|---------------------------|
G|---------------------------|X2
D|-5-5-5555-5555-3333--------|
A|-5-5-6666-5555-3333--------|
E|-3-3/6666/6666/1111--------|

(waiting by the phone, oh noo, I haven't read the news...)
e|-----------------|
B|-----------------|
G|-----------------|X2
D|-8---5---3---3-5-|
A|-8---6---x---x-x-|
E|-6r--6r--6r--5-6-|

(and another soul is stealing your thunder...)
e|----------------------|
B|----------------------|
G|----------------------|X4
D|-8-8-88---------------|
A|-8-8-88-3-3-33-1-1-11-|
E|-6-6-66-5-5-55-3-3-33-|

Chorus 1
(the phone is ringing! and the clock keeps ticking!...)
e|---------------------|
B|---------------------|
G|---------------------|X4
D|-8888-5555-3333-3333-|
A|-8888-6666-5555-xxxx-|
E|-6666-6666-6666-5555-|

e|----------------|
B|----------------|
G|----------------|
D|----------------|
A|----------------|
E|-6666-5555-3333-|

e|---------------------------|
B|---------------------------|
G|---------------------------|X2
D|-5-5-5555-5555-3333--------|
A|-5-5-6666-5555-3333--------|
E|-3-3/6666/6666/1111--------|

Verse 2
(waiting by the phone, oh noo, I haven't read the news...)
e|-----------------|
B|-----------------|
G|-----------------|X2
D|-8---5---3---3-5-|
A|-8---6---x---x-x-|
E|-6r--6r--6r--5-6-|

(and another soul is stealing your thunder...)
e|----------------------|
B|----------------------|
G|----------------------|X4
D|-8-8-88---------------|
A|-8-8-88-3-3-33-1-1-11-|
E|-6-6-66-5-5-55-3-3-33-|

Chorus 2
(the phone is ringing! and the clock keeps ticking!...)
e|---------------------|
B|---------------------|
G|---------------------|X4
D|-8888-5555-3333-3333-|
A|-8888-6666-5555-xxxx-|
E|-6666-6666-6666-5555-|

e|----------------|
B|----------------|
G|----------------|
D|----------------|
A|----------------|
E|-6666-5555-3333-|

e|---------------------------|
B|---------------------------|
G|---------------------------|X2
D|-5-5-5555-5555-3333--------|
A|-5-5-6666-5555-3333--------|
E|-3-3/6666/6666/1111--------|

Interlude
(the phone is ringing! and the clock keeps ticking!...)
e|-----------------|
B|-----------------|
G|-----------------|X2
D|----8---8---5----|
A|---8---8---6-----|
E|--6---6---6------|

-No Guitar-

Chorus 3/Outro
(the phone is ringing! and the clock keeps ticking!...)
e|---------------------|
B|---------------------|
G|---------------------|X4
D|-8888-5555-3333-3333-|
A|-8888-6666-5555-xxxx-|
E|-6666-6666-6666-5555-|

e|----------------|
B|----------------|
G|----------------|
D|----------------|
A|----------------|
E|-6666-5555-3333-|

e|---------------------------|
B|---------------------------|
G|---------------------------|X2
D|-5-5-5555-5555-3333--------|
A|-5-5-6666-5555-3333--------|
E|-3-3/6666/6666/1111--------|

e|-----------------|
B|-3-3-3-3-3-3-3-3-|
G|-----------------|
D|-----------------|
A|-----------------|
E|-----------------|
Tap to rate this tab
# A B C D E F G H I J K L M N O P Q R S T U V W X Y Z