Song name
# A B C D E F G H I J K L M N O P Q R S T U V W X Y Z

Dragonforce - Seasons Acoustic tab

e----------------------------------------------------------------------------------|
b-----------------------7---7-9/11-7/9~-----6h7p6----------------------------------|
g---------------6---6/8---8-----------------------6--------------------------------|
d-----4---4-6/8---8---------------------------------6-------6h8-6-11-8h11p8-6-6/8~-|
a-4h6---6---------------------------------------------9-8h9------------------------|
e----------------------------------------------------------------------------------|


e----------------------------------|
b----------------------------------|
g----------------------------------|
d-4-8-4h6p4-3---3-4-6-4h6p4-3------|
a-------------6---------------6-4--|
e----------------------------------|


e--------------68968---8---10--11---8---8---10--11---10-11-10h11p10p8---6~-|
b----------689-------8---8---8----8---9---9---9---9------------------------|
g-------468----------------------------------------------------------------|
d----468-------------------------------------------------------------------|
a-468----------------------------------------------------------------------|
e--------------------------------------------------------------------------|

e---6--------------------------------------------------------------------|
b-8---8-6---------------6-6h8-6------------------------------------------|
g-----------8-7-5-7-8------------8-7-5---7-8-------------7h8-7~----------|
d--------------------------------------------6----6-8-10-----------------|
a----------------------------------------------------------------------1~|
e--------------------------------------------------------------------1---| 
not sure abt the last 2 notes..

I havent figured out the harmony towards the ending...
Tap to rate this tab
 
# A B C D E F G H I J K L M N O P Q R S T U V W X Y Z