Guitaretab - guitar tabs
Song name
# A B C D E F G H I J K L M N O P Q R S T U V W X Y Z

Dragonforce - Holding On tab

E-------------------7-5-7-5---7------7-5-7-5---7----7-5-7-5---7-----|
B--17~~~~~~~~---------------8---5~-----------8--------------8-------|
G-------------------------------------------------7~------------5~--|
D-------------------------------------------------------------------|
A-------------------------------------------------------------------|
E-------------------------------------------------------------------|

E--7-5-7-5---7-----------7-5-7-5---7----7-5-7-5---7------------------------|
B----------8----\4--\7-----------8--------------8---3~--3-1-3-\5--5-3-5-\7-|
G------------------------------------7~------------------------------------|
D--------------------------------------------------------------------------|
A--------------------------------------------------------------------------|
E--------------------------------------------------------------------------|
[ Tab from: http://www.guitaretab.com/d/dragonforce/318525.html ]
E-----7-5-7-5---7------7-5-7-5---7----7-5-7-5---7-----|
B-------------8---5~-----------8--------------8-------|
G-----------------------------------7~------------5~--|
D-----------------------------------------------------|
A-----------------------------------------------------|
E-----------------------------------------------------|


Holding on




E--7-5-7-5---7-----------7-5-7-5---7----7-5-7-5---7------------------------|
B----------8----\4--\7-----------8--------------8---3~--3-1-3-\5--5-3-5-\7-|
G------------------------------------7~------------------------------------|
D--------------------------------------------------------------------------|
A--------------------------------------------------------------------------|
E--------------------------------------------------------------------------|

Woaaaaaaaaaahhhhhh!
E-----7-5--------|
B----------8-5~--|
G----------------| x11
D----------------|
A----------------|
E----------------|

E----------------|
B---5~~~---------|
G----------------| 
D----------------|
A----------------|
E----------------|
Related for Holding On tab
Holding On chords by Dragonforce