Song name
# A B C D E F G H I J K L M N O P Q R S T U V W X Y Z

Dream Evil - My Number One tab

e| 7-9-10-9---7-9-10-9---12-12-12-11-10-9-7-9-10-9----|
B| ---------------------------------------------------|
G| ---------------------------------------------------|
D| ---------------------------------------------------|
A| ---------------------------------------------------|
E| ---------------------------------------------------|

e| ---------------------------------------|
B| ---------------------------------------|
G| ---------------------------------------|
D| 9-11-12-11---------9-11-12-11----------|
A| 7--9-10--9---------7--9-10--9----------|
E| -----------000-000------------000-000--|
PM            --- ---            --- -----|

e| -------------------------------------|
B| -------------------------------------|
G| ---------------------------------12--|p
D| 14-14-14-13-12-11-9-11-12-11---------|
A| 12-12-12-11-10--9-7--9-10--9---------|
E| -----------------------------0000----|
PM                              ----

e| ---------------------------------------|
B| ---------------------------------------|
G| ---------------------------------------|
D| 9-11-12-11---------9-11-12-11----------|
A| 7--9-10--9---------7--9-10--9----------|
E| -----------000-000------------000-000--|
PM            --- ---            --- -----|

e| -----------------------------\
B| -----------------------------\
G| -----------------------------\
D| 14-14-14-13-12-11-9-11-12-11-\
A| 12-12-12-11-10--9-7--9-10--9-\
E| -----------------------------\
Tap to rate this tab
 
# A B C D E F G H I J K L M N O P Q R S T U V W X Y Z