Song name
# A B C D E F G H I J K L M N O P Q R S T U V W X Y Z

Dredg - Intermission tab

I have been working on this
tab for a little while,
and so now those of you
who really like this awsome song,
now you can play it.

Dredg-band
Intermission-song
Leitmotif-album

Tuning: Standard

slide: /

intro:


e-3-3-3-3-3-3-3-3--2-2-2-2-2-2-2-2-2--2-2-2-2-2-2-2-2--0-0-0-0-0-0-0-0-|
B-0-0-0-0-0-0-0-0--0-0-0-0-0-0-0-0-0--0-0-0-0-0-0-0-0--0-0-0-0-0-0-0-0-|
G-0-0-0-0-0-0-0-0--0-0-0-0-0-0-0-0-0--0-0-0-0-0-0-0-0--0-0-0-0-0-0-0-0-|
D-2-2-2-2-2-2-2-2--2-2-2-2-2-2-2-2-2--0-0-0-0-0-0-0-0--2-2-2-2-2-2-2-2-|
A----------------------------------------------------------------------|
E----------------------------------------------------------------------|
strumming alternate from up-down.
repeat (x6)

verse:

e-------------------------------------------------------------------------|
B-------------------------------------------------------------------------|
G-----11---------------11--1212-12-11----11--------------11----1212-12-11-|
D-/14----14-14-14^--/14--14-----------10---10-10-10^--10----10------------|
A-------------------------------------------------------------------------|
E-------------------------------------------------------------------------|

e-------------------------------------------------------------------------|
B-------------------------------------------------------------------------|
G-----11---------------11--1212-12-11----11--------------1212-12-1111-11--|
D-/14----14-14-14^--/14--14-----------10---10-10-10^--10------------------|
A-------------------------------------------------------------------------|
E-------------------------------------------------------------------------|

repeat (x3)

second time it repeats, acoustic guitar comes in:

e-15-12---12-15-12--12-----------12-------|
B----------------------15-12--------15-12-|
G-----------------------------------------|
D-----------------------------------------|
A-----------------------------------------|
E-----------------------------------------|
repeats then

e-12--19--12--12--17--12--12--15--12--12--14--12-|
B------------------------------------------------|
G------------------------------------------------|
D------------------------------------------------|
A------------------------------------------------|
E------------------------------------------------|
this goes on until chorus
pre-chorus:

just play anything here, any chords, its hard to hear the actual
notes.

Chorus:

e-3-3--3--3---2-2--2--2--2-2--2--2--0-0--0--0-|
B-3-3--3--3---3-3--3--3--2-2--2--2--0-0--0--0-|
G-0-0--0--0---0-0--0--0--0-0--0--0--0-0--0--0-|
D-0-0--0--0---0-0--0--0--0-0--0--0--0-0--0--0-|
A-2-2--2--2---2-2--2--2--0-0--0--0--2-2--2--2-|
E---------------------------------------------|
repeat: (x2
then

e-3-3--3--3-|
B-3-3--3--3-|
G-0-0--0--0-|
D-0-0--0--0-|
A-----------|
E-----------|

then back to verse. song is pretty repetative.
any questions/comments: obiwancanole@yahoo.com
Tap to rate this tab
# A B C D E F G H I J K L M N O P Q R S T U V W X Y Z