Guitaretab - guitar tabs
Song name
# A B C D E F G H I J K L M N O P Q R S T U V W X Y Z

Dropkick Murphys - Forever tab

Song: Forever
Band: Dropkick Murphys

Chords used

  C          F         G

e-0----------x---------3----------------|
B-1----------1---------3----------------|
G-0----------2---------0----------------|
D-2----------3---------0----------------|
A-3----------x---------2----------------|
E-x----------x---------3----------------|
[ Tab from: http://www.guitaretab.com/d/dropkick-murphys/133211.html ]
I prefer to use the F as pictured above, i think it sounds better in the song and it 
makes the chord transitions a lot easier than if you used the F bar chord.

Intro

C C F G

Verse

C C F G x4

Bridge:
   C               G
e--0-0-0-0-0000----3-333--3-333-------|
B--1-1-1-1-1111----3-333--3-333-------|
G--0-0-0-0-0000----0-000--0-000-------| x4 with the last time playing the G
D--3-2-0-2-2222----0-000--0-000-------|    chord for another bar
A--3-3-3-3-3333----2-222--2-222-------|
E--x-x-x-x-xxxx----3-333--3-333-------|

and that is pretty much the whole song.
any comments or corrections please mail me at elganol@gmail.com
Related for Forever tab
×
Forever