Song name
# A B C D E F G H I J K L M N O P Q R S T U V W X Y Z

Dropkick Murphys - Vengeance tab

----------------------------------------------------------------------------
			     VENGEANCE - Dropkick Murphys
----------------------------------------------------------------------------
Tabbed by:wenwi91

Tuning: standard

The song isn't too hard and neither is getting the rhythm.


Intro Guitar 1 Clean and PM
e|---------------------------------------|
B|---------------------------------------|
G|10-10-10-7-7-7-3-3-3-5-5-5-5-----------|
D|10-10-10-7-7-7-3-3-3-5-5-5-5-----------|
A|-8--8--8-5-5-5-1-1-1-3-3-3-3-----------|
E|---------------------------------------|


at 10sec Guitar 2 comes in. This is also the same as the Verse
e|-------------------------|
B|-------------------------|
G|10---7---3---5~----------|
D|10---7---3---5~----------|
A|-8---5---1---3~----------|
E|-------------------------|


Pre - Chorus (I want vengeance and i want it now...)
e|---------------------------|
B|---------------------------|
G|-3-------------5-----------|
D|-3-------------5-----------|
A|-1-------------3-----------|
E|---------------------------|


Chorus
e|----------|
B|----------|
G|-10--10---|
D|-10--10---|
A|--8---8---|
E|----------|


Solo (not 100% sure on this)
e|-7-8-8-8-8-8-8-8-7-8-8-8-8-8-8-8-------|
B|---------------------------------------|
G|---------------------------------------|
D|---------------------------------------|
A|---------------------------------------|
E|---------------------------------------|

Tap to rate this tab
# A B C D E F G H I J K L M N O P Q R S T U V W X Y Z