Guitaretab - guitar tabs
Song name
# A B C D E F G H I J K L M N O P Q R S T U V W X Y Z

Dropkick Murphys - Workers Song tab

All i prety much know is this...

Standard Tuning(EADGBE)
    (~)-means hold
Intro:
|-1--------3---6-1-----3---6-1-------------|
|----3-1-----4-----------4-----3---1-3-1---|
|--------3-----------------------3-------3-|
|------------------------------------------|
|------------------------------------------|
|------------------------------------------|

After Verse 1:
|-1--------3---6-1-----3---6-1-------------|
|----3-1-----4-----------4-----3---1-3-1---|
|--------3-----------------------3-------3-|
|------------------------------------------|
|------------------------------------------|
|------------------------------------------|

Chorus:
|-1--------3---6-1-----3---6-6---------------|
|----3-1-----4-----------4------1-1-3-4--3-1-|
|--------3-----------------------------------|
|--------------------------------------------|
|--------------------------------------------|
|--------------------------------------------|

|-1--------3---6-1-----3---6-1-------------|
|----3-1-----4-----------4-----3---1-3-1---|
|--------3-----------------------3-------3-|
|------------------------------------------|
|------------------------------------------|
|------------------------------------------|
[ Tab from: http://www.guitaretab.com/d/dropkick-murphys/45924.html ]
Solo Background:
|-1--------3---6-1-----3---6-1-------------|
|----3-1-----4-----------4-----3---1-3-1---|
|--------3-----------------------3-------3-|
|------------------------------------------|
|------------------------------------------|
|------------------------------------------|

Outro:
|-1--------3---6-1-----3---6-6---------------|
|----3-1-----4-----------4------1-1-3-4--3-1-|
|--------3-----------------------------------|
|--------------------------------------------|
|--------------------------------------------|
|--------------------------------------------|

|-1--------3---6-1-----3---6-1-------------|
|----3-1-----4-----------4-----3---1-3-1---|
|--------3-----------------------3-------3-|
|------------------------------------------|
|------------------------------------------|
|------------------------------------------|

|-1--------3---6-1-----3---6-6---------------|
|----3-1-----4-----------4------1-1-3-4--3-1-|
|--------3-----------------------------------|
|--------------------------------------------|
|--------------------------------------------|
|--------------------------------------------|

|-1--------3---6-1-----3---6-1------------------------|
|----3-1-----4-----------4-----3---1-3-1--------------|
|--------3-----------------------3-------3~~~~~~~~~33-|
|-----------------------------------------------------|
|-----------------------------------------------------|
|-----------------------------------------------------|

If you want to fix or add something...E-mail me at Gauntlet211@AOL.com
Related for Workers Song tab
Advertisement will be closed in 10 seconds