Song name
# A B C D E F G H I J K L M N O P Q R S T U V W X Y Z

Dropkick Murphys - Fuck You Im Drunk tab

i play in drop d but i believe it is played in standard
listen to song for timing & strum pattern...

e|---------------------------------------------------------------------------|
B|---------------------------------------------------------------------------|
G|-------4-444---------------------------------------------------------------|
D|4-444442-2224-44444-4-44444------6666--------------------------------------|
A|4-444442-2224-44444-4-44444--1-2-4444--------------------------------------|
E|4-44444-----4-44444-4-44444-4----------------------------------------------|

e|---------------------------------------------------------------------------|
B|---------------------------------------------------------------------------|
G|-------4-444---------------------------------------------------------------|
D|4-444442-2224-44444-4-44444-------4-44444----------------------------------|
A|4-444442-2224-44444-4-44444-4-2-1-4-44444----------------------------------|
E|4-44444-----4-44444-4-44444-------4-44444----------------------------------|
Tap to rate this tab
 
# A B C D E F G H I J K L M N O P Q R S T U V W X Y Z