Guitaretab - guitar tabs
Song name
# A B C D E F G H I J K L M N O P Q R S T U V W X Y Z

Duane Eddy - Rebel Rouser tab

Title:Rebel Rouser
Artist:Duane Eddy
Tabbed by:Mothra. (mothra_82@hotmail.com)

-----------------------------------------------------------------------------
                          Rebel Rouser-Duane Eddy
-----------------------------------------------------------------------------

[ Tab from: http://www.guitaretab.com/d/duane-eddy/119666.html ]
First off, the tab I just read is off in a few areas, so here is the complete accurate 
The song is in standard tuning but it has three sections.
INTRO:
e-------------------------------------------------------------------|
B-------------------------------------------------------------------|
G-------------------------------------------------------------------|
D-------------------------------2-----------------------------------|
A-----------0-2-------0-0---0-4---2-----------0-2-----0-2-2---------|
E-3-0---0-4-----4-0-4----------------3-0--0-4-----0-4----------3-0~-|
THEN YOU REPEAT THIS LICK, WITH RHYTHYM CHORDS SHOWN BELOW; DRUMS KICK IN ALSO.
SECTION:1
e-------------------------------------------------------------------|
B-------------------------------------------------------------------|
G-------------------------------------------------------------------|
D-------------------------------2-----------------------------------|
A-----------0-2-------0-0---0-4---2-----------0-2-----0-2-2---------|
E-3-0---0-4-----4-0-4----------------3-0--0-4-----0-4----------3-0~-|
    E                 A           E                       B      E

SECTION:2
e------------------------------------------------------------------|
B------------------------------------------------------------------|
G------------------------------------------------------------------|
D----------------------------0-3-----------------------------------|
A--------0-1-3--0---0-1-1--1-----3---------0-1-3---0-1-3-3---------|
E-0-1--1----------1-----------------4-1--1-------1----------4-1----|
    F                 A#         F                     C      F

SECTION:3
e------------------------------------------------------------------|
B------------------------------------------------------------------|
G------------------------------------------------------------------|
D----------------------------1-4-----------------------------------|
A--------1-2-4--1---1-2-2--2-----4---------1-2-4---1-2-4-4---------|
E-1-2--2----------2-----------------5-2--2-------2----------5-2----|
    F#                B          F#                    C#     F#


THEN YOU REPEAT THE WHOLE FIRST SECTION AGAIN WITH RHYTHYM CHORDS AND FADE OUT, THAT'S 
THE SONG ENDS. THERE YOU GO GUYS, GET THE TIMING DOWN BY LISTENING TO THE SONG,IF YOU 
FIND A COPY,ASK YOUR DAD OR GRAMPA THEY'LL SURLEY KNOW.
QUESTIONS OR COMMENTS E-MAIL ME.
MOTHRA.
Related for Rebel Rouser tab
Rebel Rouser chords by Duane Eddy