Song name
# A B C D E F G H I J K L M N O P Q R S T U V W X Y Z

Duane Eddy - Peter Gunn tab

Help us improve GuitareTab! Take a short survey!
Peter Gunn Theme
By: Duane Eddy

This song is a cool sounding song and it is pretty easy so beginners this song is
for you. (It will take practice.)(alot of it.)

e|----------------------------------------|
B|----------------------------------------|
G|----------------------------------------|
D|----------------------------------------|          Repeat x4
A|--------------------------------0-------|
E|---0----0----2----0----3---0---------4--|


e|----------------------------------------|
B|----------------------------------------|
G|----------------------------------------|
D|----------------------------------0-----|          Repeat x2
A|---0----0----2----0----3----0---------4-|
E|----------------------------------------|

e|----------------------------------------|
B|----------------------------------------|
G|----------------------------------------|
D|----------------------------------------|          Repeat x2
A|---------------------------0------------|
E|-0----0----2----0---3---0------4--------|


e|--------------------------------------------------------------------------|
B|--------------------------------------------------------------------------|
G|--------------------------------------------------------------------------|
D|--------------------------------------------------------------------------|
A|--2--2--2--2--2--2--2--2---0--0--0--0--0--0--0--0-------------------------|
E|--------------------------------------------------------------------------|

e|----------------------------------------|
B|----------------------------------------|
G|----------------------------------------|
D|----------------------------------------|
A|---------------------------0------------|
E|-0----0----2----0---3---0------4--------|


e|-------------------------------------------0---|
B|-------------------------------------------0---|
G|-------------------------------------------0---|
D|-------------------------------------------2---|
A|---------------------------0---------------2---|
E|-0----0----2----0---3---0------4----0------0---|


That is the whole song! It is really easy so you should get it down pretty
quickly. Have fun with it!

Keep Rockin'

Peace Out,

-Brendan
Related for Peter Gunn tab