Dudes - Good Intentions chords

Variation 1, Parentheses are alternate chords, played once or twice through
E||-------------------------||
B||--5--3--0--(3)--0--8--3--||
G||--4--4--4--(5)--0--9--4--||
D||--5--5--5--(5)--4--9--4--||
A||--3--3--3--(0)--5--7--2--||
D||----------------5--------||

Variation 2
E||--------------------------------|--------------|--------------|-----3-----------||
B||--1--1--1--1--3--0--3--0--0--3--|--3--3--0--3--|--5--3--0--3--|--3--1--0--8--3--||
G||--0--0--0--0--5--5--5--5--0--4--|--5--5--0--4--|--4--4--0--4--|--5--2--0--9--4--||
D||--0--2--0--2--5--5--5--5--4--4--|--5--5--4--4--|--5--5--4--4--|--5--2--4--9--4--||
A||--3--3--3--3--------------5--2--|-----0--5--2--|--3--3--5--2--|-----0--5--7--2--||
D||--------------------------5-----|--------5-----|--------5-----|--------5--------||

Go back to variation 1
Tap to rate this tab
 
# A B C D E F G H I J K L M N O P Q R S T U V W X Y Z