Song name
# A B C D E F G H I J K L M N O P Q R S T U V W X Y Z

Duman - Sevdim Desem tab

-------------------------------------------------------------------------------
                             Sevdim Desem - Duman
-------------------------------------------------------------------------------
Tabbed by:Karatasak
E-mail:grkngs09@gmail.com

Tuning:Standard(E-A-D-G-B-E)


e|-2-2-0-0---3---------------------------------------------------------------|
B|-0-0-------2-2/4-4---------------------------------------------------------|
G|-0---------0-0-----------5/7-8-10-12-10-8-12-10-8-12-10-7-6----------------|
D|---------------------------------------------------------------------------|
A|---------------------------------------------------------------------------|
E|---------------------------------------------------------------------------|

e|---------------------------------------------------------------------------|
B|---------------------------------------------------------------------------|
G|10-10-10-8\7-5-10-10-10-8\7-5--10-10-10-8-10h12-8-5-5-4-5-7-8-8-6-6-4-4-2-2|
D|---------------------------------------------------------------------------|
A|---------------------------------------------------------------------------|
E|---------------------------------------------------------------------------|

e|---------------------------------------------------------------------------|
B|---------------------------------------------------------------------------|
G|-10-10-10-8\7-5-10-10-10-8\7-5--10-10-10-8-10h12-8-5-5--4-5-7-9------------|
D|---------------------------------------------------------------------------|
A|---------------------------------------------------------------------------|
E|---------------------------------------------------------------------------|

************************************

| /   slide up
| \   slide down
| h   hammer-on
| p   pull-off
| ~   vibrato
| +   harmonic
| x   Mute note
| b   Bend
| pb  Pre-bend
| br  Bend release
| pbr Pre-bend release
| brb Bend release bend

************************************
Tap to rate this tab
 
# A B C D E F G H I J K L M N O P Q R S T U V W X Y Z