Song name
# A B C D E F G H I J K L M N O P Q R S T U V W X Y Z

Duman - Seni Kendime Sakladim tab

Duman- seni kendime sakladım

im almoust sure this is right

e|-------------------------------------------|
B|----5---6--6--6--6--5--5--6--8--9----------|
G|-------------------------------------------|
D|-------------------------------------------|
A|-------------------------------------------|
E|-------------------------------------------|
|
e|-------------------------------------------|
B|------------6--5---------------6--5--------|
G|---5--5--6-------6--5--5--5--6--------6--5-|
D|-------------------------------------------|
A|-------------------------------------------|
E|-------------------------------------------|
|
e|-------------------------------------------|
B|-------------------------------------------|
G|-------------------------------------------|
D|--6--6--6--8--6--5--6-----5--6--6--5--6----|
A|-----------------------8-----------------8-|
E|-------------------------------------------|
Tap to rate this tab
 
# A B C D E F G H I J K L M N O P Q R S T U V W X Y Z