Song name
# A B C D E F G H I J K L M N O P Q R S T U V W X Y Z

Duman - Ah tab

INTRO
E|---------------------------|--------------------------|
B|------------6--4--3--------|--------------------------|
G|---------7-----------5--3--|--------------------------|
D|------5--------------------|-----1--1--0--1--0--1--0--|
A|---------------------------|--3--x--x--x--x--x--x--x--|
E|--3/5----------------------|--------------------------|

Soloda neden re telinin 12. kısmını kullandım die mrk edebilirsiniz
bunun yerine sol telinin 7. kısmı warken ama aynı sesi vermiyecektir.
Çalarken farkına warırsınız..

SOLO
E|---------------------------|--------------------------|
B|---------------------------|--------------------------|
G|---------7--8--7--5--3-----|------10--8--7--5--3------|
D|--12[~]--------------------|--12----------------------|
A|---------------------------|--------------------------|
E|---------------------------|--------------------------|

SOLO 2
E|---------------------------|--------------------------|
B|---------------------------|--------------------------|
G|-----5/3--5--6--5/3--------|--------------------------|
D|--5------------------5/3---|--------------------------|
A|---------------------------|--------------------------|
E|---------------------------|--------------------------|

Bass SOLO
E|---------------------------|--------------------------|
B|---------------------------|--------------------------|
G|---------------------------|--------------------------|
D|---------------------------|--------------------------|
A|---------------------------|--2--2--2--5--5--5--5-----|
E|--8--7--5--3--2--3--4--5---|--2--2--2--5--5--5--5-----|

Söz kısmında la telinin 5. ve re telinin 7. kısmına x basıyosunuz
E|---------------------------|--------------------------|
B|---------------------------|--------------------------|
G|---------------------------|---7--7--7--7--7--7--7----|
D|--7[x]--7[x]->-------------|---6--6--6--6--6--6--6----|
A|--5[x]--5[x]->-------------|---5--5--5--5--5--5--5----|
E|---------------------------|--------------------------|

Aradaki uzatmalı vuruşlar ise ;
E|---------------------------|--------------------------|
B|---------------------------|--------------------------|
G|---------------------------|--------------------------|
D|--12/13/12/13->------------|--------------------------|
A|---------------------------|--------------------------|
E|---------------------------|--------------------------|

Mail adresim açık , herhangi bi soru veya problem için mail atabilirsiniz
ayrıca tabını çıkarmak istediğiniz parça isminide mail olarak gönderirseniz
yardımcı olurum.

                                          Made by silver_wolf 
Tap to rate this tab
 
# A B C D E F G H I J K L M N O P Q R S T U V W X Y Z