Song name
# A B C D E F G H I J K L M N O P Q R S T U V W X Y Z

Dwight Yoakam - A Heart Like Mine tab

Dwight Yoakam
A Heart Like Mine
From "3 Pears"
Tabbed by thatchadmiller (Twitter)


Intro
e|-----------------|   e|----0~~~------0--|
B|-----------------|   B|----0~~~3-2---0--|
G|-----------------|   G|----x---2-2---x--|
D|-----0---0-repeat|   D|--2-----0-2-2----|
A|--0h2-0h2--------|   A|--2-------0-2----|
E|-----------------|   E|--0---------0----|


Intro & verse chords
E  D-A-E


Verse 1
E D   A   E       D   A   E      D    A   E
I saw you comin', You saw me and took off runnin'
E             D  A    E                D     A   E  
Those shadows in your eyes were such a sweet disguise


E|0-2-4 (between the E and A)


Chorus
A    D   A  E       A   D  A  E
I, I wonder why     You never tried
A  D  A  E                    B
To understand    a heart like mine


Verse 2
I just wasted time till I lost all I could find
So any that you see surely must belong to me


Chorus


Solo over verse chords
e|--0~~-0-0-0~~-0-0--|
B|--5~~-8-8-5~~-3-2--|
G|-------------------|
D|-------------------|
A|-------------------|
E|-------------------|


Chorus


Outro 
(play verse chords over the chorus, with the intro hammer-on riff thrown in)



If you have any input or corrections, hit me up on Twitter and let me know
if you have any songs you need help with. God bless!
Tap to rate this tab
# A B C D E F G H I J K L M N O P Q R S T U V W X Y Z