Song name
# A B C D E F G H I J K L M N O P Q R S T U V W X Y Z

Eagles - After The Thrill Is Gone tab

-------------------------------------------------------------------------------
			     After the Thrill is Gone - The Eagles
-------------------------------------------------------------------------------
Tabbed by:Ryan Carroll
Email:rcarroll.simpson@yahoo.com

Good day to all who decided to view this tab. Im sure many people have been waiting for 
tab of the intro to After the Thrill is Gone, i know i was. I am not going to say this

is one hundred percent perfect, but it is pretty close. I believe it is played on an 
with a slide, though i tabbed it with an acoustic and no slide.I have also included

the chords. Enjoy!!

listen to the song for timing... email me if you find something wrong.
Tuning:standard
   G                        C               G                       C
e|---10\12---12-------------------------------10\12--12----------------------|
B|---------------12--10--8--8\10--12---------------------12--10--8--8\10--12-|
G|-------------------------------------7\9-----------------------------------|
D|---------------------------------------------------------------------------|
A|---------------------------------------------------------------------------|
E|---------------------------------------------------------------------------|
          Am            G                             Am
e|-----------------------------10--12----------------------------------------|
B|--------8\10--8\10/8--10\12----------12---12/10/8---8\10---10\12/10--8\10--|
G|-7\9-----------------------------------------------------------------------|
D|---------------------------------------------------------------------------|
A|---------------------------------------------------------------------------|
E|---------------------------------------------------------------------------|
    G         D     c     G
e|---------------------------------------------------------------------------|
B|--8------------------------------------------------------------------------|
G|---------------------------------------------------------------------------|
D|---------------------------------------------------------------------------|
A|---------------------------------------------------------------------------|
E|---------------------------------------------------------------------------|
Tap to rate this tab
# A B C D E F G H I J K L M N O P Q R S T U V W X Y Z