Song name
# A B C D E F G H I J K L M N O P Q R S T U V W X Y Z

Eagles - I Cant Tell You Why tab

-----------------------------------------------------------------------------
			                    I can't tell you why - The Eagles
-----------------------------------------------------------------------------

Tuning: Standard

e|--------------------------------------------------------------------------|
B|--------------------------------------------------------------------------|
G|--------------------------------------------------------------------------|
D|---------2/4---7/9\7------------------------------------------------------|
A|---2-4-5--------------7/9--7\5/7\5----------------------------------------|
E|------------------------------------5/7-----------------------------------|

e|--------------------------------------------------------------------------|
B|--------------------------------------------------------------------------|
G|--------------------14(16)pb14p11-----------------14(16)pb14p11-----------|
D|----------------12-----------------14(16)pb14p12--------------------------|
A|----------12-14-----------------------------------------------------------|
E|---12/14------------------------------------------------------------------|
                     |---hold---------|
e|--------------------------------------------------------------------------|
B|--------------------------15----------------------------------------------|
G|--------------------14(16)---pb14p11--------------------------------------|
D|---14(16)pb14p12----------------------14----12-14--14(16)p12--------------|
A|-----------------------------------------14-------------------------------|
E|--------------------------------------------------------------------------|

e|--------------------------------------------------------------------------|
B|--------------------------------------------------------------------------|
G|--------------------------------------------------------------------------|
D|----14-14(16)(14)-12h14p12------------------------------------------------|
A|--------------------------------------------------------------------------|
E|--------------------------------------------------------------------------|



************************************

| /   slide up
| \   slide down
| h   hammer-on
| p   pull-off
| ~   vibrato
| +   harmonic
| x   Mute note
| b   Bend
| pb  Pre-bend
| br  Bend release
| pbr Pre-bend release
| brb Bend release bend

************************************
Tap to rate this tab
# A B C D E F G H I J K L M N O P Q R S T U V W X Y Z