Guitaretab - guitar tabs
Song name
# A B C D E F G H I J K L M N O P Q R S T U V W X Y Z

Eagles - Lyin Eyes tab

I am newly registered and this is my first contribution. Hope you like it!!

===Chords used in this song===

G: 300023,
Gmaj7: 234500,
C: 010230,
Am: 012200 and
D: 232000

==Lead===

   G             Gmaj7          C                Am         D
E -3--3--3--3--3--2--2h3--2--0--0------------------------------------------|
B ---------------------------------0-----------0---------------------------|
G ------------------------------------2--0--2--------0--2--2h4--2h4--2-----|
D ------------------------------------------------2------------------------|
A -------------------------------------------------------------------------|
E -------------------------------------------------------------------------|

         G
E -------------------------------------------------------------------------|
B ----------3h5--3--1h3--1--0h1--0-----------------------------------------|
G -0-----0--------------------------3--2--0--------------------------------|
D ----4--------------------------------------------------------------------|
A -------------------------------------------------------------------------|
E -------------------------------------------------------------------------|

===Verse===


G               Gmaj7            C
City girls just seem to find out early;

Am                            D
how to open doors with just a smile.

  G                Gmaj7             C
A rich old man and she won't have to worry;

       Am              C              G
she'll dress up all in lace and go in style.


G               Gmaj7              C
Late at night a big old house gets lonely;

  Am                                 D
I guess every form of refuge has its price.
[ Tab from: http://www.guitaretab.com/e/eagles/5874.html ]
G                          Gmaj7             C
And it breaks her heart to think her love is only

      Am            C                G C D
Given to a man with hands as cold as ice.

       G                  Gmaj           G
So she tells him she must go out for the evening

    Am                                 D
To comfort an old friend who's feeling down.

    G                    Gmaj7          C
But he knows where she's goin' as she's leavin'

      Am              C                G
She's headed for that cheatin' side of town.

===Chorus===

          G   C            G C G            Em   Bm            Am      D
You can't hide your lyin' eyes, and your smile is a thin disguise.

             G  G9         C  A      Am              D                G
I thought by now you'd realize there ain't no way to hide those lying eyes.

(Lead)


    G           Gmaj7           C
She gets up and pours herself a strong one

    Am                                D
And stares out at the stars up in the sky.

 G                  Gmaj7      C
Another night, it's gonna be a long one;

    Am                  C                 G C D
She draws the shade and hangs her head to cry.


G              Gmaj7              C
My, oh my, you sure know how to arrange things;

    Am                           D
You set it up so well, so carefully.

         G              Gmaj7           C
Ain't it funny how your new life didn't change things;

       Am                 C                G
You're still the same old girl you used to be.

(Chorus)

       Am             D              G Gmaj7
There aint no way to hide your lyin eyes

Am               D               G
Honey, you can't hide your lyin eyes.

(Lead)
Related for Lyin Eyes tab
Lyin Eyes chords by Eagles