Song name
# A B C D E F G H I J K L M N O P Q R S T U V W X Y Z

Earl Sweatshirt - Centurion tab

Song: Centurion (http://www.youtube.com/watch?v=ADVZUL88w3E)
Album: DORIS
Artist: Earl Sweatshirt
tabbed by Daniel E.




Vince Staples part:

e|----------------------------------------------|
B|----------------------------------------------|
G|----------------------------------------------|  
D|---6--------6--------6---------6--------------|
A|------7-8------7-8------7-8-------7-8---------|
E|----------------------------------------------|


bass:

e|----------------------------------------------|
B|----------------------------------------------|
G|----------------------------------------------|  
D|----------------------------------------------|
A|----------------------------------------------|
E|---4----0---1------4----0----1----------------|





Earl part consists in this only octave:

e|----------------------------------------------|
B|----------------------------------------------|
G|----9--999--99--9-----------------------------|  
D|----------------------------------------------|
A|----7--777--77--7-----------------------------|
E|----------------------------------------------|
Tap to rate this tab
 
# A B C D E F G H I J K L M N O P Q R S T U V W X Y Z