Guitaretab - guitar tabs
Song name
# A B C D E F G H I J K L M N O P Q R S T U V W X Y Z

Early November - Rest Of My Life tab

This is my first tab and Im not sure if its completely right because its hard to hear 
individual guitars but I think this is what they play.

Tabbed by Macday000(daylenc@gmail.com)


Intro
Clean
Guitar 1
    0:00
e|---------------------------------------------------------------------------|
B|---------------------------------------------------------------------------|
G|---------------------------------------------------------------------------| x4
D|---------------------------------------------------------------------------|
A|--22222222222222224444444477777777-----------------------------------------|
E|--00000000000000002222222255555555-----------------------------------------|
    ********************************
Guitar 2
    0:12-0:23
e|---------------------------------------------------------------------------|
B|---------------------------------------------------------------------------|
G|--1h2p14~~---1h2p1-2~~----------------------------------------------------| x2
D|-------2-----------2-------------------------------------------------------|
A|---------------------------------------------------------------------------|
E|---------------------------------------------------------------------------|


Guitar 1 Pre-Chorus
    0:23
e|---------------|----------|
B|---------------|-----8*---|
G|---------------|----------|
D|--7-xxxxx------|----------|
A|--7-xxxxx------|--5*------|
E|--5-xxxxx------|----------|


Chorus
    0:24-0:30
Guitar 1
e|--------------------------------------------------------------------------------------|
B|--------------------------------------------------------------------------------------|
G|--666666666666-44-2222222-------------------------------------------------------------|
D|--666666666666-44-2222222-999999999---------------------------------------------------|
A|--444444444444-22-0000000-999999999---------------------------------------------------|
E|--------------------------777777777---------------------------------------------------|
Guitar 2
e|-------------------------------------------------------------------------------------|
B|-------------------------------------------------------------------------------------|
G|--13-13-13-13-13-13-13-13-13-13-13-13-13-13--11-11-9999999-16-16-16-16-16-16-16-16---|
D|---x--x--x--x--x--x--x--x--x--x--x--x--x--x---x--x-xxxxxxx-x-x-x-x-x-x--x-x---|
A|--11-11-11-11-11-11-11-11-11-11-11-11-11-11---9--9-7777777-14-14-14-14-14-14-14-14---|
E|-------------------------------------------------------------------------------------|

0:30-0:36
Guitar 1
e|------------------------------------------------------------------------------------|
B|------------------------------------------------------------------------------------|
G|--66-6-6-6-6-6-44-2222222-----------------------------------------------------------|
D|--66-6-6-6-6-6-22-2222222-99999999--------------------------------------------------|
A|--44-4-4-4-4-4-22-0000000-99999999--------------------------------------------------|
E|--------------------------77777777--------------------------------------------------|
Guitar 2
e|----------------------------------------------------------|
B|----------------------------------------------------------|
G|--13\9999/13\999\-11-11-9999999-16-16-16-16-16-16-16-16---|
D|---x\xxxx/x-\xxx\--x--x-xxxxxxx-x-x-x-x-x-x--x-x---|
A|--11\7777/11\777\--9-9-7777777-14-14-14-14-14-14-14-14---|
E|----------------------------------------------------------|


[ Tab from: http://www.guitaretab.com/e/early-november/146096.html ]
0:36-0:42
Guitar 1
e|--------------------------------------------------------------------------------------|
B|--------------------------------------------------------------------------------------|
G|--666666666666-44-2222222-------------------------------------------------------------|
D|--666666666666-44-2222222-999999999---------------------------------------------------|
A|--444444444444-22-0000000-999999999---------------------------------------------------|
E|--------------------------777777777---------------------------------------------------|
Guitar 2
e|-------------------------------------------------------------------------------------|
B|-------------------------------------------------------------------------------------|
G|--99999999999911-11-999999944444444--------------------------------------------------|
D|--xxxxxxxxxxxx-x--x-xxxxxxxxxxxxxxx--------------------------------------------------|
A|--777777777777-9-9-777777722222222-------------------------------------------------|
E|-------------------------------------------------------------------------------------|

0:42-0:48
Guitar 1
e|--------------------------------------------------------------------------------------|
B|--------------------------------------------------------------------------------------|
G|--666666666666-44-2222222-------------------------------------------------------------|
D|--666666666666-44-2222222-999999999---------------------------------------------------|
A|--444444444444-22-0000000-999999999---------------------------------------------------|
E|--------------------------777777777---------------------------------------------------|
Guitar 2
e|------------------------------------------------------------------------------------|
B|------------------------------------------------------------------------------------|
G|--13-13-13-13-13-13-13-13-13-13-13-13-11-11-999999-444444---------------------------|
D|---x-x-x--x--x--x--x--x--x--x--x--x-x--x-xxxxxx-xxxxxx---------------------------|
A|--11-11-11-11-11-11-11-11-11-11-11-11--9--9-777777-222222---------------------------|
E|------------------------------------------------------------------------------------|

Verse
0:48-1:11
Guitar 1
e|---------------------------------------------------------------------------|
B|---------------------------------------------------------------------------|
G|---------------------------------------------------------------------------| x4
D|--22222222222222224444444477777777-----------------------------------------|
A|--22222222222222224444444477777777-----------------------------------------|
E|--00000000000000002222222255555555-----------------------------------------|
    ********************************
Guitar 2
e|---------------------------------------------------------------------------|
B|---------------------------------------------------------------------------|
G|--1h2p14~~---1h2p1-2~~----------------------------------------------------| x2
D|-------2-----------2-------------------------------------------------------|
A|---------------------------------------------------------------------------|
E|---------------------------------------------------------------------------|


Play Pre-Chorus 1:11-1:12

Play Chorus 1:13-1:36


Bridge 1:37-2:01
Guitar 1
e|---------------------------------------------------------------------------|
B|---------------------------------------------------------------------------|
G|---------------------------------------------------------------------------| x4
D|---------------------------------------------------------------------------|
A|--4444444444444\-----------------------------------------------------------|
E|----------------0005555555555555444----------------------------------------|
    *********************************


Guitar 2 1:49-2:01
e|---------------------------------------------------------------------------|
B|------7--7---7---7----9---9---9--------------------------------------------|
G|---9----9---9---9---9----9---9---------------------------------------------| x2
D|-------------------7-7--7---7----------------------------------------------|
A|--7-7--7---7---7-----------------------------------------------------------|
E|---------------------------------------------------------------------------|


Guitar 1 2:01-2:04

e|--4~-----|
B|--4~-----|
G|--4~-44--|
D|--4~-44--|
A|--4~-22--|
E|--4~-----|
           ^ not really sure but sounds ok

Play Chorus 2:04-2:26

Ending 2:26-2:37

Guitar 1
e|--------------------------------------------------------------------------|
B|--------------------------------------------------------------------------|
G|--66-4-x--2---------------------------------------------------------------|
D|--66-4-x--2---------------------------------------------------------------|
A|--44-2-x--0---------------------------------------------------------------|
E|--------------------------------------------------------------------------|

Guitar 2
e|--------------------------------------------------------------------------|
B|----------0---------------------------------------------------------------|
G|--99-4-x--x---------------------------------------------------------------|
D|--xx-x-x--7---------------------------------------------------------------|
A|--77-2-x--x---------------------------------------------------------------|
E|----------5---------------------------------------------------------------|
Related for Rest Of My Life tab